ISO-10303-21;
HEADER;
/* Generated by software containing ST-Developer
 * from STEP Tools, Inc. (www.steptools.com) 
 */
/* OPTION: using custom schema-name function */

FILE_DESCRIPTION(
/* description */ (''),
/* implementation_level */ '2;1');

FILE_NAME(
/* name */ 'tie_cyl_x3.stp',
/* time_stamp */ '2013-07-12T10:44:44+02:00',
/* author */ (''),
/* organization */ (''),
/* preprocessor_version */ 'ST-DEVELOPER v14',
/* originating_system */ 'SIEMENS PLM Software NX 8.0',
/* authorisation */ '');

FILE_SCHEMA (('CONFIG_CONTROL_DESIGN'));
ENDSEC;

DATA;
#10=SHAPE_REPRESENTATION_RELATIONSHIP('None',
'relationship between tie cylinder test-None and tie cylinder test-None',
#92,#11);
#11=ADVANCED_BREP_SHAPE_REPRESENTATION('tie cylinder test-None',(#93),#346);
#12=CC_DESIGN_APPROVAL(#24,(#82));
#13=CC_DESIGN_APPROVAL(#25,(#84));
#14=CC_DESIGN_APPROVAL(#26,(#31));
#15=APPROVAL_PERSON_ORGANIZATION(#69,#24,#18);
#16=APPROVAL_PERSON_ORGANIZATION(#70,#25,#19);
#17=APPROVAL_PERSON_ORGANIZATION(#71,#26,#20);
#18=APPROVAL_ROLE('approver');
#19=APPROVAL_ROLE('approver');
#20=APPROVAL_ROLE('approver');
#21=APPROVAL_DATE_TIME(#39,#24);
#22=APPROVAL_DATE_TIME(#40,#25);
#23=APPROVAL_DATE_TIME(#41,#26);
#24=APPROVAL(#27,' ');
#25=APPROVAL(#28,' ');
#26=APPROVAL(#29,' ');
#27=APPROVAL_STATUS('not_yet_approved');
#28=APPROVAL_STATUS('not_yet_approved');
#29=APPROVAL_STATUS('not_yet_approved');
#30=CC_DESIGN_SECURITY_CLASSIFICATION(#31,(#84));
#31=SECURITY_CLASSIFICATION(' ',' ',#32);
#32=SECURITY_CLASSIFICATION_LEVEL('confidential');
#33=CC_DESIGN_DATE_AND_TIME_ASSIGNMENT(#37,#35,(#82));
#34=CC_DESIGN_DATE_AND_TIME_ASSIGNMENT(#38,#36,(#31));
#35=DATE_TIME_ROLE('creation_date');
#36=DATE_TIME_ROLE('classification_date');
#37=DATE_AND_TIME(#52,#42);
#38=DATE_AND_TIME(#53,#43);
#39=DATE_AND_TIME(#54,#44);
#40=DATE_AND_TIME(#55,#45);
#41=DATE_AND_TIME(#56,#46);
#42=LOCAL_TIME(0,0,0.,#47);
#43=LOCAL_TIME(0,0,0.,#48);
#44=LOCAL_TIME(0,0,0.,#49);
#45=LOCAL_TIME(0,0,0.,#50);
#46=LOCAL_TIME(0,0,0.,#51);
#47=COORDINATED_UNIVERSAL_TIME_OFFSET(0,0,.BEHIND.);
#48=COORDINATED_UNIVERSAL_TIME_OFFSET(0,0,.BEHIND.);
#49=COORDINATED_UNIVERSAL_TIME_OFFSET(0,0,.BEHIND.);
#50=COORDINATED_UNIVERSAL_TIME_OFFSET(0,0,.BEHIND.);
#51=COORDINATED_UNIVERSAL_TIME_OFFSET(0,0,.BEHIND.);
#52=CALENDAR_DATE(0,1,1);
#53=CALENDAR_DATE(0,1,1);
#54=CALENDAR_DATE(0,1,1);
#55=CALENDAR_DATE(0,1,1);
#56=CALENDAR_DATE(0,1,1);
#57=CC_DESIGN_PERSON_AND_ORGANIZATION_ASSIGNMENT(#65,#61,(#82,#84));
#58=CC_DESIGN_PERSON_AND_ORGANIZATION_ASSIGNMENT(#66,#62,(#86));
#59=CC_DESIGN_PERSON_AND_ORGANIZATION_ASSIGNMENT(#67,#63,(#84));
#60=CC_DESIGN_PERSON_AND_ORGANIZATION_ASSIGNMENT(#68,#64,(#31));
#61=PERSON_AND_ORGANIZATION_ROLE('creator');
#62=PERSON_AND_ORGANIZATION_ROLE('design_owner');
#63=PERSON_AND_ORGANIZATION_ROLE('design_supplier');
#64=PERSON_AND_ORGANIZATION_ROLE('classification_officer');
#65=PERSON_AND_ORGANIZATION(#79,#72);
#66=PERSON_AND_ORGANIZATION(#79,#73);
#67=PERSON_AND_ORGANIZATION(#79,#74);
#68=PERSON_AND_ORGANIZATION(#79,#75);
#69=PERSON_AND_ORGANIZATION(#79,#76);
#70=PERSON_AND_ORGANIZATION(#79,#77);
#71=PERSON_AND_ORGANIZATION(#79,#78);
#72=ORGANIZATION(' ',' ',' ');
#73=ORGANIZATION(' ',' ',' ');
#74=ORGANIZATION(' ',' ',' ');
#75=ORGANIZATION(' ',' ',' ');
#76=ORGANIZATION(' ',' ',' ');
#77=ORGANIZATION(' ',' ',' ');
#78=ORGANIZATION(' ',' ',' ');
#79=PERSON(' ',' ',' ',(' '),$,$);
#80=SHAPE_DEFINITION_REPRESENTATION(#81,#92);
#81=PRODUCT_DEFINITION_SHAPE('','',#82);
#82=PRODUCT_DEFINITION(' ','',#84,#83);
#83=DESIGN_CONTEXT('',#91,'design');
#84=PRODUCT_DEFINITION_FORMATION_WITH_SPECIFIED_SOURCE(' ',' ',#86,
 .NOT_KNOWN.);
#85=PRODUCT_RELATED_PRODUCT_CATEGORY('detail','',(#86));
#86=PRODUCT('tie cylinder test','tie cylinder test',' ',(#89));
#87=PRODUCT_CATEGORY('part',' ');
#88=PRODUCT_CATEGORY(' ','');
#89=MECHANICAL_CONTEXT(' ',#91,'mechanical');
#90=APPLICATION_PROTOCOL_DEFINITION('international standard',
'config_control_design',2010,#91);
#91=APPLICATION_CONTEXT(
'configuration controlled 3D designs of mechanical parts and assemblies');
#92=SHAPE_REPRESENTATION('tie cylinder test-None',(#204),#346);
#93=MANIFOLD_SOLID_BREP('R2',#94);
#94=CLOSED_SHELL('',(#103,#104,#105,#106,#107,#108,#109,#110));
#95=FACE_OUTER_BOUND('',#145,.T.);
#96=FACE_OUTER_BOUND('',#148,.T.);
#97=FACE_OUTER_BOUND('',#151,.T.);
#98=PLANE('',#211);
#99=PLANE('',#212);
#100=PLANE('',#215);
#101=PLANE('',#217);
#102=PLANE('',#218);
#103=ADVANCED_FACE('F1',(#131,#132),#111,.T.);
#104=ADVANCED_FACE('F2',(#133,#134),#98,.T.);
#105=ADVANCED_FACE('F3',(#95),#99,.T.);
#106=ADVANCED_FACE('',(#135,#136),#112,.F.);
#107=ADVANCED_FACE('',(#96),#100,.F.);
#108=ADVANCED_FACE('',(#137,#138),#101,.F.);
#109=ADVANCED_FACE('',(#97),#102,.F.);
#110=ADVANCED_FACE('',(#139,#140),#113,.F.);
#111=CYLINDRICAL_SURFACE('',#209,7.99999999986562);
#112=CYLINDRICAL_SURFACE('',#214,2.00000000000008);
#113=CYLINDRICAL_SURFACE('',#219,1.25);
#114=LINE('',#320,#119);
#115=LINE('',#324,#120);
#116=LINE('',#329,#121);
#117=LINE('',#334,#122);
#118=LINE('',#342,#123);
#119=VECTOR('',#224,1.);
#120=VECTOR('',#227,1.);
#121=VECTOR('',#232,1.);
#122=VECTOR('',#239,1.);
#123=VECTOR('',#250,1.);
#124=CIRCLE('',#205,7.99999999986562);
#125=CIRCLE('',#206,7.99999999990971);
#126=CIRCLE('',#207,7.99999999995489);
#127=CIRCLE('',#208,7.99999999990971);
#128=CIRCLE('',#210,2.00000000000008);
#129=CIRCLE('',#213,2.00000000000008);
#130=CIRCLE('',#216,1.25);
#131=FACE_BOUND('',#141,.T.);
#132=FACE_BOUND('',#142,.T.);
#133=FACE_BOUND('',#143,.T.);
#134=FACE_BOUND('',#144,.T.);
#135=FACE_BOUND('',#146,.T.);
#136=FACE_BOUND('',#147,.T.);
#137=FACE_BOUND('',#149,.T.);
#138=FACE_BOUND('',#150,.T.);
#139=FACE_BOUND('',#152,.T.);
#140=FACE_BOUND('',#153,.T.);
#141=EDGE_LOOP('',(#154));
#142=EDGE_LOOP('',(#155,#156,#157,#158,#159,#160,#161,#162));
#143=EDGE_LOOP('',(#163));
#144=EDGE_LOOP('',(#164));
#145=EDGE_LOOP('',(#165,#166,#167));
#146=EDGE_LOOP('',(#168));
#147=EDGE_LOOP('',(#169));
#148=EDGE_LOOP('',(#170));
#149=EDGE_LOOP('',(#171));
#150=EDGE_LOOP('',(#172,#173,#174,#175));
#151=EDGE_LOOP('',(#176,#177));
#152=EDGE_LOOP('',(#178));
#153=EDGE_LOOP('',(#179));
#154=ORIENTED_EDGE('',*,*,#190,.F.);
#155=ORIENTED_EDGE('',*,*,#191,.F.);
#156=ORIENTED_EDGE('',*,*,#192,.T.);
#157=ORIENTED_EDGE('',*,*,#193,.T.);
#158=ORIENTED_EDGE('',*,*,#194,.T.);
#159=ORIENTED_EDGE('',*,*,#195,.T.);
#160=ORIENTED_EDGE('',*,*,#194,.F.);
#161=ORIENTED_EDGE('',*,*,#196,.T.);
#162=ORIENTED_EDGE('',*,*,#197,.T.);
#163=ORIENTED_EDGE('',*,*,#195,.F.);
#164=ORIENTED_EDGE('',*,*,#198,.T.);
#165=ORIENTED_EDGE('',*,*,#199,.F.);
#166=ORIENTED_EDGE('',*,*,#196,.F.);
#167=ORIENTED_EDGE('',*,*,#193,.F.);
#168=ORIENTED_EDGE('',*,*,#200,.F.);
#169=ORIENTED_EDGE('',*,*,#198,.F.);
#170=ORIENTED_EDGE('',*,*,#200,.T.);
#171=ORIENTED_EDGE('',*,*,#201,.T.);
#172=ORIENTED_EDGE('',*,*,#199,.T.);
#173=ORIENTED_EDGE('',*,*,#192,.F.);
#174=ORIENTED_EDGE('',*,*,#202,.T.);
#175=ORIENTED_EDGE('',*,*,#197,.F.);
#176=ORIENTED_EDGE('',*,*,#191,.T.);
#177=ORIENTED_EDGE('',*,*,#202,.F.);
#178=ORIENTED_EDGE('',*,*,#190,.T.);
#179=ORIENTED_EDGE('',*,*,#201,.F.);
#180=VERTEX_POINT('',#316);
#181=VERTEX_POINT('',#318);
#182=VERTEX_POINT('',#319);
#183=VERTEX_POINT('',#321);
#184=VERTEX_POINT('',#323);
#185=VERTEX_POINT('',#325);
#186=VERTEX_POINT('',#328);
#187=VERTEX_POINT('',#332);
#188=VERTEX_POINT('',#337);
#189=VERTEX_POINT('',#341);
#190=EDGE_CURVE('',#180,#180,#203,.T.);
#191=EDGE_CURVE('',#181,#182,#124,.T.);
#192=EDGE_CURVE('',#181,#183,#114,.T.);
#193=EDGE_CURVE('',#183,#184,#125,.T.);
#194=EDGE_CURVE('E2',#184,#185,#115,.T.);
#195=EDGE_CURVE('E3',#185,#185,#126,.T.);
#196=EDGE_CURVE('E1',#184,#186,#127,.T.);
#197=EDGE_CURVE('',#186,#182,#116,.T.);
#198=EDGE_CURVE('',#187,#187,#128,.T.);
#199=EDGE_CURVE('',#186,#183,#117,.T.);
#200=EDGE_CURVE('',#188,#188,#129,.T.);
#201=EDGE_CURVE('',#189,#189,#130,.T.);
#202=EDGE_CURVE('',#181,#182,#118,.T.);
#203=B_SPLINE_CURVE_WITH_KNOTS('',3,(#258,#259,#260,#261,#262,#263,#264,
#265,#266,#267,#268,#269,#270,#271,#272,#273,#274,#275,#276,#277,#278,#279,
#280,#281,#282,#283,#284,#285,#286,#287,#288,#289,#290,#291,#292,#293,#294,
#295,#296,#297,#298,#299,#300,#301,#302,#303,#304,#305,#306,#307,#308,#309,
#310,#311,#312,#313,#314,#315),.UNSPECIFIED.,.T.,.F.,(1,3,3,3,3,3,3,3,3,
3,3,3,3,3,3,3,3,3,3,3,3,1),(-0.0374360185227626,0.,0.0532572206522014,0.106486603571656,
0.160132801676976,0.21407130221642,0.267564217535916,0.320577198403951,0.373806360847139,
0.427617426375681,0.481483293705843,0.534771130169914,0.587755510818792,
0.641178023111986,0.695099796440857,0.748807903764703,0.801930162455369,
0.854999719804907,0.908621856578284,0.962563981477237,1.,1.0532572206522),
 .UNSPECIFIED.);
#204=AXIS2_PLACEMENT_3D('',#257,#220,#221);
#205=AXIS2_PLACEMENT_3D('',#317,#222,#223);
#206=AXIS2_PLACEMENT_3D('',#322,#225,#226);
#207=AXIS2_PLACEMENT_3D('',#326,#228,#229);
#208=AXIS2_PLACEMENT_3D('',#327,#230,#231);
#209=AXIS2_PLACEMENT_3D('',#330,#233,#234);
#210=AXIS2_PLACEMENT_3D('',#331,#235,#236);
#211=AXIS2_PLACEMENT_3D('',#333,#237,#238);
#212=AXIS2_PLACEMENT_3D('',#335,#240,#241);
#213=AXIS2_PLACEMENT_3D('',#336,#242,#243);
#214=AXIS2_PLACEMENT_3D('',#338,#244,#245);
#215=AXIS2_PLACEMENT_3D('',#339,#246,#247);
#216=AXIS2_PLACEMENT_3D('',#340,#248,#249);
#217=AXIS2_PLACEMENT_3D('',#343,#251,#252);
#218=AXIS2_PLACEMENT_3D('',#344,#253,#254);
#219=AXIS2_PLACEMENT_3D('',#345,#255,#256);
#220=DIRECTION('',(0.,0.,1.));
#221=DIRECTION('',(1.,0.,0.));
#222=DIRECTION('',(0.,1.,0.));
#223=DIRECTION('',(0.,0.,-0.999999999999813));
#224=DIRECTION('',(-4.81341420389397E-015,1.,-1.38777878078899E-014));
#225=DIRECTION('',(9.24929050220379E-015,-1.,-2.17971611447866E-016));
#226=DIRECTION('',(0.99999999999999,1.38777878079711E-014,0.));
#227=DIRECTION('',(0.,-1.,0.));
#228=DIRECTION('',(-4.81341420389397E-015,1.,-7.90113473604881E-015));
#229=DIRECTION('',(0.,1.38777878078927E-014,1.0000000000002));
#230=DIRECTION('',(9.24929050220379E-015,-1.,-2.17971611447866E-016));
#231=DIRECTION('',(0.99999999999999,1.38777878079711E-014,0.));
#232=DIRECTION('',(4.81341420389397E-015,-1.,1.38777878078899E-014));
#233=DIRECTION('',(0.,-1.,0.));
#234=DIRECTION('',(0.,0.,-0.999999999999813));
#235=DIRECTION('',(0.,1.,0.));
#236=DIRECTION('',(0.998947677798025,0.,-0.0458643327867472));
#237=DIRECTION('',(0.,-1.,0.));
#238=DIRECTION('',(1.,0.,0.));
#239=DIRECTION('',(0.999722430218224,0.,-0.0235597648241208));
#240=DIRECTION('',(0.,1.,0.));
#241=DIRECTION('',(1.,0.,0.));
#242=DIRECTION('',(0.,-1.,0.));
#243=DIRECTION('',(0.998947677798025,0.,-0.0458643327867472));
#244=DIRECTION('',(1.38777878079712E-014,-1.,-2.17971611447866E-016));
#245=DIRECTION('',(0.999999999999959,0.,0.));
#246=DIRECTION('',(0.,1.,0.));
#247=DIRECTION('',(0.,0.,1.));
#248=DIRECTION('',(0.0235597648241208,1.39873386600014E-014,0.999722430218224));
#249=DIRECTION('',(0.999722430218242,0.,-0.0235597648241992));
#250=DIRECTION('',(-0.999722430218224,0.,0.0235597648241208));
#251=DIRECTION('',(0.0235597648241208,1.39873386600014E-014,0.999722430218224));
#252=DIRECTION('',(0.999722430218225,0.,-0.023559764824121));
#253=DIRECTION('',(0.,-1.,0.));
#254=DIRECTION('',(0.,0.,-1.));
#255=DIRECTION('',(0.0235597648241208,1.39873386600014E-014,0.999722430218224));
#256=DIRECTION('',(0.999722430218242,0.,-0.0235597648241992));
#257=CARTESIAN_POINT('',(0.,0.,0.));
#258=CARTESIAN_POINT('',(1198.63288883444,-912.629026229862,-16696.2479947311));
#259=CARTESIAN_POINT('',(1198.63288883444,-912.490075311936,-16696.2479947311));
#260=CARTESIAN_POINT('',(1198.60914528697,-912.349212132204,-16696.2435648727));
#261=CARTESIAN_POINT('',(1198.56369873305,-912.218140076592,-16696.2356854966));
#262=CARTESIAN_POINT('',(1198.51826569961,-912.087107015264,-16696.2278084647));
#263=CARTESIAN_POINT('',(1198.44993216044,-911.962254132775,-16696.2163303895));
#264=CARTESIAN_POINT('',(1198.36428851649,-911.85361941448,-16696.2036996512));
#265=CARTESIAN_POINT('',(1198.27798489767,-911.744147550778,-16696.1909715796));
#266=CARTESIAN_POINT('',(1198.17172843926,-911.64812346959,-16696.1768043865));
#267=CARTESIAN_POINT('',(1198.0540719978,-911.573352715,-16696.1641275016));
#268=CARTESIAN_POINT('',(1197.93581246436,-911.498198695015,-16696.1513856366));
#269=CARTESIAN_POINT('',(1197.80271287915,-911.442451119564,-16696.1398716889));
#270=CARTESIAN_POINT('',(1197.66583428011,-911.410899585402,-16696.1318374554));
#271=CARTESIAN_POINT('',(1197.53007714613,-911.379606557272,-16696.1238690474));
#272=CARTESIAN_POINT('',(1197.38682244657,-911.371264120308,-16696.1191400968));
#273=CARTESIAN_POINT('',(1197.2481262438,-911.386604538558,-16696.1182549614));
#274=CARTESIAN_POINT('',(1197.11062700293,-911.401812567486,-16696.1173774648));
#275=CARTESIAN_POINT('',(1196.97383922608,-911.440685391951,-16696.1202301769));
#276=CARTESIAN_POINT('',(1196.84894647523,-911.499933202295,-16696.1256701344));
#277=CARTESIAN_POINT('',(1196.7235329536,-911.559428060832,-16696.1311327752));
#278=CARTESIAN_POINT('',(1196.60667917953,-911.641062977032,-16696.1392892217));
#279=CARTESIAN_POINT('',(1196.5077553859,-911.738217058766,-16696.1478447754));
#280=CARTESIAN_POINT('',(1196.40777954499,-911.836404367015,-16696.1564913169));
#281=CARTESIAN_POINT('',(1196.3233616864,-911.953167600729,-16696.1657020298));
#282=CARTESIAN_POINT('',(1196.26151559086,-912.078995674076,-16696.1729845683));
#283=CARTESIAN_POINT('',(1196.19962150955,-912.204921376142,-16696.1802727573));
#284=CARTESIAN_POINT('',(1196.15864227868,-912.343464112769,-16696.1857570656));
#285=CARTESIAN_POINT('',(1196.14217305857,-912.482982006304,-16696.1879478673));
#286=CARTESIAN_POINT('',(1196.12587717862,-912.621031460283,-16696.1901156106));
#287=CARTESIAN_POINT('',(1196.1331317991,-912.763856509809,-16696.1890974535));
#288=CARTESIAN_POINT('',(1196.16329940084,-912.899511835885,-16696.1851661852));
#289=CARTESIAN_POINT('',(1196.19330501497,-913.034438748646,-16696.1812560263));
#290=CARTESIAN_POINT('',(1196.24675980486,-913.165963582726,-16696.1744017764));
#291=CARTESIAN_POINT('',(1196.31918784291,-913.283484379608,-16696.1664055514));
#292=CARTESIAN_POINT('',(1196.39221053107,-913.401970048067,-16696.1583436756));
#293=CARTESIAN_POINT('',(1196.48649941127,-913.509475352613,-16696.1489769511));
#294=CARTESIAN_POINT('',(1196.59440411042,-913.597374619265,-16696.1408249403));
#295=CARTESIAN_POINT('',(1196.70327944532,-913.686064566687,-16696.1325995996));
#296=CARTESIAN_POINT('',(1196.82905981039,-913.757238510236,-16696.1254653056));
#297=CARTESIAN_POINT('',(1196.96134967392,-913.804899670376,-16696.1215656423));
#298=CARTESIAN_POINT('',(1197.09310229881,-913.852367275123,-16696.1176818158));
#299=CARTESIAN_POINT('',(1197.23499886118,-913.877805580238,-16696.1169554343));
#300=CARTESIAN_POINT('',(1197.37505568323,-913.878982147226,-16696.1200721729));
#301=CARTESIAN_POINT('',(1197.51362708974,-913.880146235772,-16696.1231558561));
#302=CARTESIAN_POINT('',(1197.65421238136,-913.857605516188,-16696.1300839646));
#303=CARTESIAN_POINT('',(1197.78519620686,-913.813300793697,-16696.1397394256));
#304=CARTESIAN_POINT('',(1197.91608001049,-913.769029903178,-16696.1493875136));
#305=CARTESIAN_POINT('',(1198.04095865031,-913.701856739754,-16696.1619693344));
#306=CARTESIAN_POINT('',(1198.14986986743,-913.61729174172,-16696.1750336099));
#307=CARTESIAN_POINT('',(1198.25989491976,-913.531861897295,-16696.1882314939));
#308=CARTESIAN_POINT('',(1198.35665547502,-913.42633809157,-16696.202206993));
#309=CARTESIAN_POINT('',(1198.43234378989,-913.309251316851,-16696.2140358044));
#310=CARTESIAN_POINT('',(1198.50845871835,-913.191504588078,-16696.2259312884));
#311=CARTESIAN_POINT('',(1198.56535832723,-913.058757354626,-16696.2359028522));
#312=CARTESIAN_POINT('',(1198.59819431757,-912.922057115825,-16696.2417440386));
#313=CARTESIAN_POINT('',(1198.62115252145,-912.826479308666,-16696.245828068));
#314=CARTESIAN_POINT('',(1198.63288883444,-912.727407506754,-16696.2479947311));
#315=CARTESIAN_POINT('',(1198.63288883444,-912.629026229862,-16696.2479947311));
#316=CARTESIAN_POINT('',(1198.63288883444,-912.629026229862,-16696.2479947311));
#317=CARTESIAN_POINT('',(1197.19707265341,-917.62902622986,-16704.1180920553));
#318=CARTESIAN_POINT('',(1204.30708247615,-917.62902622986,-16707.7852108582));
#319=CARTESIAN_POINT('',(1189.92221087899,-917.62902622986,-16707.4462125708));
#320=CARTESIAN_POINT('',(1204.30708247617,-917.62902622986,-16707.7852108583));
#321=CARTESIAN_POINT('',(1204.30708247617,-907.62902622986,-16707.7852108583));
#322=CARTESIAN_POINT('',(1197.19707265317,-907.62902622986,-16704.1180920553));
#323=CARTESIAN_POINT('',(1205.1948520954,-907.62902622986,-16704.306570174));
#324=CARTESIAN_POINT('',(1205.1948520954,-917.62902622986,-16704.306570174));
#325=CARTESIAN_POINT('',(1205.1948520954,-927.62902622986,-16704.306570174));
#326=CARTESIAN_POINT('',(1197.197072654,-927.62902622986,-16704.1180920553));
#327=CARTESIAN_POINT('',(1197.19707265317,-907.62902622986,-16704.1180920553));
#328=CARTESIAN_POINT('',(1189.92221087899,-907.62902622986,-16707.4462125708));
#329=CARTESIAN_POINT('',(1189.92221087899,-917.62902622986,-16707.4462125708));
#330=CARTESIAN_POINT('',(1197.19707265341,-907.62902622986,-16704.1180920553));
#331=CARTESIAN_POINT('',(1197.197072654,-927.62902622986,-16704.1180920553));
#332=CARTESIAN_POINT('',(1199.1949680096,-927.62902622986,-16704.2098207209));
#333=CARTESIAN_POINT('',(1188.3995152677,-927.62902622986,-16712.852341144));
#334=CARTESIAN_POINT('',(1189.92221087899,-907.62902622986,-16707.4462125708));
#335=CARTESIAN_POINT('',(1188.3995152677,-907.62902622986,-16695.437693859));
#336=CARTESIAN_POINT('',(1197.197072654,-917.62902622986,-16704.1180920553));
#337=CARTESIAN_POINT('',(1199.1949680096,-917.62902622986,-16704.2098207209));
#338=CARTESIAN_POINT('',(1197.197072654,-917.62902622986,-16704.1180920553));
#339=CARTESIAN_POINT('',(1197.197072654,-917.62902622986,-16704.1180920553));
#340=CARTESIAN_POINT('',(1197.11464667758,-912.629026229862,-16707.6157117145));
#341=CARTESIAN_POINT('',(1198.36429971535,-912.629026229862,-16707.6451614205));
#342=CARTESIAN_POINT('',(1189.92221087899,-917.62902622986,-16707.4462125708));
#343=CARTESIAN_POINT('',(1189.92221087899,-917.62902622986,-16707.4462125708));
#344=CARTESIAN_POINT('',(4.81341420389397E-014,-917.62902622986,1.38777878078899E-013));
#345=CARTESIAN_POINT('',(1197.11464667758,-912.629026229862,-16707.6157117145));
#346=(
GEOMETRIC_REPRESENTATION_CONTEXT(3)
GLOBAL_UNCERTAINTY_ASSIGNED_CONTEXT((#347))
GLOBAL_UNIT_ASSIGNED_CONTEXT((#353,#349,#348))
REPRESENTATION_CONTEXT('tie_cyl_x3','TOP_LEVEL_ASSEMBLY_PART')
);
#347=UNCERTAINTY_MEASURE_WITH_UNIT(LENGTH_MEASURE(0.0508),#353,
'DISTANCE_ACCURACY_VALUE','Maximum Tolerance applied to model');
#348=(
NAMED_UNIT(*)
SI_UNIT($,.STERADIAN.)
SOLID_ANGLE_UNIT()
);
#349=(
CONVERSION_BASED_UNIT('DEGREE',#351)
NAMED_UNIT(#350)
PLANE_ANGLE_UNIT()
);
#350=DIMENSIONAL_EXPONENTS(0.,0.,0.,0.,0.,0.,0.);
#351=PLANE_ANGLE_MEASURE_WITH_UNIT(PLANE_ANGLE_MEASURE(0.0174532925),#352);
#352=(
NAMED_UNIT(*)
PLANE_ANGLE_UNIT()
SI_UNIT($,.RADIAN.)
);
#353=(
LENGTH_UNIT()
NAMED_UNIT(*)
SI_UNIT(.MILLI.,.METRE.)
);
ENDSEC;
END-ISO-10303-21;
