ISO-10303-21;
HEADER;
/****************************************************************
 * Generated by software with PDE/Lib inside                    *
 * PDElib Version 3.2.7, created Mon Aug 05, 2002 at 18:41:24   *
 * International Technegroup Inc. (www.iti-oh.com)              *
 ****************************************************************/
FILE_DESCRIPTION((''),'2;1');
FILE_NAME('c:\\sdrc\\user_vito_remoto\\layer1s.stp',
   '2009-01-23T09:21:12',('User'),('SDRC'),'I-DEAS Master Series','UNIX','Yes');
FILE_SCHEMA(('CONFIG_CONTROL_DESIGN',
   'GEOMETRIC_VALIDATION_PROPERTIES_MIM','SHAPE_APPEARANCE_LAYER_MIM'));
ENDSEC;
DATA;
#10=(NAMED_UNIT(*)PLANE_ANGLE_UNIT()SI_UNIT($,.RADIAN.));
#11=DIMENSIONAL_EXPONENTS(0.0,0.0,0.0,0.0,0.0,0.0,0.0);
#12=PLANE_ANGLE_MEASURE_WITH_UNIT(PLANE_ANGLE_MEASURE(
   0.017453292500000),#10);
#16=(CONVERSION_BASED_UNIT('DEGREE',#12)NAMED_UNIT(#11)
   PLANE_ANGLE_UNIT());
#20=(NAMED_UNIT(*)SI_UNIT($,.STERADIAN.)SOLID_ANGLE_UNIT());
#24=(LENGTH_UNIT()NAMED_UNIT(*)SI_UNIT(.MILLI.,.METRE.));
#26=UNCERTAINTY_MEASURE_WITH_UNIT(LENGTH_MEASURE(
   0.010000000000000),#24,'DISTANCE_ACCURACY_VALUE','');
#28=(GEOMETRIC_REPRESENTATION_CONTEXT(3)
   GLOBAL_UNCERTAINTY_ASSIGNED_CONTEXT((#26))
   GLOBAL_UNIT_ASSIGNED_CONTEXT((#16,#20,#24))
   REPRESENTATION_CONTEXT('','3D'));
#29=APPLICATION_CONTEXT(
   'configuration controlled 3D designs of mechanical parts and assemblies'
);
#30=APPLICATION_PROTOCOL_DEFINITION('International Standard',
   'ccd_cla_gvp_ast_asd',1995,#29);
#31=MECHANICAL_CONTEXT('None',#29,'mechanical');
#32=PRODUCT('layer1s','','None',(#31));
#33=PRODUCT_RELATED_PRODUCT_CATEGORY('detail',$,(#32));
#34=PRODUCT_CATEGORY('part',$);
#35=PRODUCT_CATEGORY_RELATIONSHIP('None','None',#34,#33);
#36=PERSON('00816','None','None',$,$,$);
#37=ORGANIZATION('','None','None');
#38=PERSON_AND_ORGANIZATION(#36,#37);
#39=PERSON_AND_ORGANIZATION_ROLE('design_owner');
#40=CC_DESIGN_PERSON_AND_ORGANIZATION_ASSIGNMENT(#38,#39,(#32));
#41=PRODUCT_DEFINITION_FORMATION_WITH_SPECIFIED_SOURCE('','None',#32,
   .BOUGHT.);
#42=PERSON('00811','None','None',$,$,$);
#43=ORGANIZATION('','None','None');
#44=PERSON_AND_ORGANIZATION(#42,#43);
#45=PERSON_AND_ORGANIZATION_ROLE('creator');
#46=CC_DESIGN_PERSON_AND_ORGANIZATION_ASSIGNMENT(#44,#45,(#41));
#47=PERSON('00812','None','None',$,$,$);
#48=ORGANIZATION('','None','None');
#49=PERSON_AND_ORGANIZATION(#47,#48);
#50=PERSON_AND_ORGANIZATION_ROLE('part_supplier');
#51=CC_DESIGN_PERSON_AND_ORGANIZATION_ASSIGNMENT(#49,#50,(#41));
#52=APPROVAL_STATUS('approved');
#53=APPROVAL(#52,'None');
#54=PERSON('00813','None','None',$,$,$);
#55=ORGANIZATION('','None','None');
#56=PERSON_AND_ORGANIZATION(#54,#55);
#57=APPROVAL_ROLE('None');
#58=APPROVAL_PERSON_ORGANIZATION(#56,#53,#57);
#59=CALENDAR_DATE(2009,23,1);
#60=COORDINATED_UNIVERSAL_TIME_OFFSET(0,0,.AHEAD.);
#61=LOCAL_TIME(9,21,13.0,#60);
#62=DATE_AND_TIME(#59,#61);
#63=APPROVAL_DATE_TIME(#62,#53);
#64=CC_DESIGN_APPROVAL(#53,(#41));
#65=SECURITY_CLASSIFICATION_LEVEL('unclassified');
#66=SECURITY_CLASSIFICATION('None','None',#65);
#67=CC_DESIGN_SECURITY_CLASSIFICATION(#66,(#41));
#68=APPROVAL_STATUS('approved');
#69=APPROVAL(#68,'None');
#70=PERSON('00814','None','None',$,$,$);
#71=ORGANIZATION('','None','None');
#72=PERSON_AND_ORGANIZATION(#70,#71);
#73=APPROVAL_ROLE('None');
#74=APPROVAL_PERSON_ORGANIZATION(#72,#69,#73);
#75=CALENDAR_DATE(2009,23,1);
#76=COORDINATED_UNIVERSAL_TIME_OFFSET(0,0,.AHEAD.);
#77=LOCAL_TIME(9,21,13.0,#76);
#78=DATE_AND_TIME(#75,#77);
#79=APPROVAL_DATE_TIME(#78,#69);
#80=CC_DESIGN_APPROVAL(#69,(#66));
#81=PERSON('00815','None','None',$,$,$);
#82=ORGANIZATION('','None','None');
#83=PERSON_AND_ORGANIZATION(#81,#82);
#84=PERSON_AND_ORGANIZATION_ROLE('classification_officer');
#85=CC_DESIGN_PERSON_AND_ORGANIZATION_ASSIGNMENT(#83,#84,(#66));
#86=DATE_TIME_ROLE('classification_date');
#87=CALENDAR_DATE(2009,23,1);
#88=COORDINATED_UNIVERSAL_TIME_OFFSET(0,0,.AHEAD.);
#89=LOCAL_TIME(9,21,13.0,#88);
#90=DATE_AND_TIME(#87,#89);
#91=CC_DESIGN_DATE_AND_TIME_ASSIGNMENT(#90,#86,(#66));
#92=DESIGN_CONTEXT('part definition',#29,'design');
#93=DOCUMENT_TYPE('cad_filename');
#94=DOCUMENT('None','BABAR DETECTOR-Barrel flux return:layer1s:::1',
   'None',#93);
#95=PRODUCT_DEFINITION_WITH_ASSOCIATED_DOCUMENTS('None','None',#41,#92,
   (#94));
#96=PERSON('00809','None','None',$,$,$);
#97=ORGANIZATION('','None','None');
#98=PERSON_AND_ORGANIZATION(#96,#97);
#99=PERSON_AND_ORGANIZATION_ROLE('creator');
#100=CC_DESIGN_PERSON_AND_ORGANIZATION_ASSIGNMENT(#98,#99,(#95));
#101=DATE_TIME_ROLE('creation_date');
#102=CALENDAR_DATE(2009,23,1);
#103=COORDINATED_UNIVERSAL_TIME_OFFSET(0,0,.AHEAD.);
#104=LOCAL_TIME(9,21,13.0,#103);
#105=DATE_AND_TIME(#102,#104);
#106=CC_DESIGN_DATE_AND_TIME_ASSIGNMENT(#105,#101,(#95));
#107=APPROVAL_STATUS('approved');
#108=APPROVAL(#107,'None');
#109=PERSON('00810','None','None',$,$,$);
#110=ORGANIZATION('','None','None');
#111=PERSON_AND_ORGANIZATION(#109,#110);
#112=APPROVAL_ROLE('None');
#113=APPROVAL_PERSON_ORGANIZATION(#111,#108,#112);
#114=CALENDAR_DATE(2009,23,1);
#115=COORDINATED_UNIVERSAL_TIME_OFFSET(0,0,.AHEAD.);
#116=LOCAL_TIME(9,21,13.0,#115);
#117=DATE_AND_TIME(#114,#116);
#118=APPROVAL_DATE_TIME(#117,#108);
#119=CC_DESIGN_APPROVAL(#108,(#95));
#120=PRODUCT_DEFINITION_SHAPE('None','None',#95);
#121=ADVANCED_BREP_SHAPE_REPRESENTATION('',(#269),#28);
#122=SHAPE_DEFINITION_REPRESENTATION(#120,#121);
#123=DRAUGHTING_PRE_DEFINED_COLOUR('magenta');
#124=DRAUGHTING_PRE_DEFINED_CURVE_FONT('continuous');
#125=CURVE_STYLE('',#124,POSITIVE_LENGTH_MEASURE(0.100000000000000),
   #123);
#126=FILL_AREA_STYLE_COLOUR('',#123);
#127=FILL_AREA_STYLE('',(#126));
#128=SURFACE_STYLE_FILL_AREA(#127);
#129=SURFACE_SIDE_STYLE('',(#128));
#130=SURFACE_STYLE_USAGE(.BOTH.,#129);
#131=PRESENTATION_STYLE_ASSIGNMENT((#125,#130));
#132=CARTESIAN_POINT('F1',(-2247.444555395900400,
   -533.282243115230020,2812.500000000000000));
#133=CARTESIAN_POINT('F1',(-344.744555395920030,-533.282243115230020,
   2812.500000000000000));
#134=CARTESIAN_POINT('F1',(-2247.444555395900400,
   -533.282243115230020,-937.500000000010000));
#135=CARTESIAN_POINT('F1',(-344.744555395920030,-533.282243115230020,
   -937.500000000010000));
#136=B_SPLINE_SURFACE_WITH_KNOTS('F1',1,1,((#132,#134),(#133,#135))
,.PLANE_SURF.,.F.,.F.,.U.,(2,2),(2,2),(0.0,1.0),(0.0,
   1.970883481368600),.UNSPECIFIED.);
#137=CARTESIAN_POINT('V1',(-2247.444555395900400,
   -533.282243115230020,2812.500000000000000));
#138=VERTEX_POINT('V1',#137);
#139=CARTESIAN_POINT('V5',(-344.744555395920030,-533.282243115230020,
   2812.500000000000000));
#140=VERTEX_POINT('V5',#139);
#141=CARTESIAN_POINT('E11',(-2247.444555395900400,
   -533.282243115230020,2812.500000000000000));
#142=CARTESIAN_POINT('E11',(-344.744555395920030,
   -533.282243115230020,2812.500000000000000));
#143=QUASI_UNIFORM_CURVE('E11',1,(#141,#142),.POLYLINE_FORM.,.F.,.U.
   );
#144=EDGE_CURVE('E11',#138,#140,#143,.T.);
#145=ORIENTED_EDGE('E11',*,*,#144,.T.);
#146=CARTESIAN_POINT('V6',(-344.744555395920030,-533.282243115230020,
   -937.500000000010000));
#147=VERTEX_POINT('V6',#146);
#148=CARTESIAN_POINT('E7',(-344.744555395920030,-533.282243115230020,
   2812.500000000000000));
#149=CARTESIAN_POINT('E7',(-344.744555395920030,-533.282243115230020,
   -937.500000000010000));
#150=QUASI_UNIFORM_CURVE('E7',1,(#148,#149),.POLYLINE_FORM.,.F.,.U.
   );
#151=EDGE_CURVE('E7',#140,#147,#150,.T.);
#152=ORIENTED_EDGE('E7',*,*,#151,.T.);
#153=CARTESIAN_POINT('V2',(-2247.444555395900400,
   -533.282243115230020,-937.500000000010000));
#154=VERTEX_POINT('V2',#153);
#155=CARTESIAN_POINT('E9',(-344.744555395920030,-533.282243115230020,
   -937.500000000010000));
#156=CARTESIAN_POINT('E9',(-2247.444555395900400,
   -533.282243115230020,-937.500000000010000));
#157=QUASI_UNIFORM_CURVE('E9',1,(#155,#156),.POLYLINE_FORM.,.F.,.U.
   );
#158=EDGE_CURVE('E9',#147,#154,#157,.T.);
#159=ORIENTED_EDGE('E9',*,*,#158,.T.);
#160=CARTESIAN_POINT('E3',(-2247.444555395900400,
   -533.282243115230020,-937.500000000010000));
#161=CARTESIAN_POINT('E3',(-2247.444555395900400,
   -533.282243115230020,2812.500000000000000));
#162=QUASI_UNIFORM_CURVE('E3',1,(#160,#161),.POLYLINE_FORM.,.F.,.U.
   );
#163=EDGE_CURVE('E3',#154,#138,#162,.T.);
#164=ORIENTED_EDGE('E3',*,*,#163,.T.);
#165=EDGE_LOOP('F1',(#145,#152,#159,#164));
#166=FACE_OUTER_BOUND('F1',#165,.T.);
#167=ADVANCED_FACE('F1',(#166),#136,.T.);
#168=CARTESIAN_POINT('F2',(-2247.444555395900400,
   -554.282243115230020,-937.500000000010000));
#169=CARTESIAN_POINT('F2',(-344.744555395920030,-554.282243115230020,
   -937.500000000010000));
#170=CARTESIAN_POINT('F2',(-2247.444555395900400,
   -554.282243115230020,2812.500000000000000));
#171=CARTESIAN_POINT('F2',(-344.744555395920030,-554.282243115230020,
   2812.500000000000000));
#172=B_SPLINE_SURFACE_WITH_KNOTS('F2',1,1,((#168,#170),(#169,#171))
,.PLANE_SURF.,.F.,.F.,.U.,(2,2),(2,2),(0.0,1.0),(0.0,
   1.970883481368600),.UNSPECIFIED.);
#173=CARTESIAN_POINT('V3',(-2247.444555395900400,
   -554.282243115230020,-937.500000000010000));
#174=VERTEX_POINT('V3',#173);
#175=CARTESIAN_POINT('V7',(-344.744555395920030,-554.282243115230020,
   -937.500000000010000));
#176=VERTEX_POINT('V7',#175);
#177=CARTESIAN_POINT('E10',(-2247.444555395900400,
   -554.282243115230020,-937.500000000010000));
#178=CARTESIAN_POINT('E10',(-344.744555395920030,
   -554.282243115230020,-937.500000000010000));
#179=QUASI_UNIFORM_CURVE('E10',1,(#177,#178),.POLYLINE_FORM.,.F.,.U.
   );
#180=EDGE_CURVE('E10',#174,#176,#179,.T.);
#181=ORIENTED_EDGE('E10',*,*,#180,.T.);
#182=CARTESIAN_POINT('V8',(-344.744555395920030,-554.282243115230020,
   2812.500000000000000));
#183=VERTEX_POINT('V8',#182);
#184=CARTESIAN_POINT('E5',(-344.744555395920030,-554.282243115230020,
   -937.500000000010000));
#185=CARTESIAN_POINT('E5',(-344.744555395920030,-554.282243115230020,
   2812.500000000000000));
#186=QUASI_UNIFORM_CURVE('E5',1,(#184,#185),.POLYLINE_FORM.,.F.,.U.
   );
#187=EDGE_CURVE('E5',#176,#183,#186,.T.);
#188=ORIENTED_EDGE('E5',*,*,#187,.T.);
#189=CARTESIAN_POINT('V4',(-2247.444555395900400,
   -554.282243115230020,2812.500000000000000));
#190=VERTEX_POINT('V4',#189);
#191=CARTESIAN_POINT('E12',(-344.744555395920030,
   -554.282243115230020,2812.500000000000000));
#192=CARTESIAN_POINT('E12',(-2247.444555395900400,
   -554.282243115230020,2812.500000000000000));
#193=QUASI_UNIFORM_CURVE('E12',1,(#191,#192),.POLYLINE_FORM.,.F.,.U.
   );
#194=EDGE_CURVE('E12',#183,#190,#193,.T.);
#195=ORIENTED_EDGE('E12',*,*,#194,.T.);
#196=CARTESIAN_POINT('E1',(-2247.444555395900400,
   -554.282243115230020,2812.500000000000000));
#197=CARTESIAN_POINT('E1',(-2247.444555395900400,
   -554.282243115230020,-937.500000000010000));
#198=QUASI_UNIFORM_CURVE('E1',1,(#196,#197),.POLYLINE_FORM.,.F.,.U.
   );
#199=EDGE_CURVE('E1',#190,#174,#198,.T.);
#200=ORIENTED_EDGE('E1',*,*,#199,.T.);
#201=EDGE_LOOP('F2',(#181,#188,#195,#200));
#202=FACE_OUTER_BOUND('F2',#201,.T.);
#203=ADVANCED_FACE('F2',(#202),#172,.T.);
#204=CARTESIAN_POINT('F3',(-2247.444555395900400,
   -554.282243115230020,2812.500000000000000));
#205=CARTESIAN_POINT('F3',(-344.744555395920030,-554.282243115230020,
   2812.500000000000000));
#206=CARTESIAN_POINT('F3',(-2247.444555395900400,
   -533.282243115230020,2812.500000000000000));
#207=CARTESIAN_POINT('F3',(-344.744555395920030,-533.282243115230020,
   2812.500000000000000));
#208=B_SPLINE_SURFACE_WITH_KNOTS('F3',1,1,((#204,#206),(#205,#207))
,.PLANE_SURF.,.F.,.F.,.U.,(2,2),(2,2),(0.0,90.604761904762000),(
   0.0,1.0),.UNSPECIFIED.);
#209=ORIENTED_EDGE('E12',*,*,#194,.F.);
#210=CARTESIAN_POINT('E6',(-344.744555395920030,-554.282243115230020,
   2812.500000000000000));
#211=CARTESIAN_POINT('E6',(-344.744555395920030,-533.282243115230020,
   2812.500000000000000));
#212=QUASI_UNIFORM_CURVE('E6',1,(#210,#211),.POLYLINE_FORM.,.F.,.U.
   );
#213=EDGE_CURVE('E6',#183,#140,#212,.T.);
#214=ORIENTED_EDGE('E6',*,*,#213,.T.);
#215=ORIENTED_EDGE('E11',*,*,#144,.F.);
#216=CARTESIAN_POINT('E2',(-2247.444555395900400,
   -533.282243115230020,2812.500000000000000));
#217=CARTESIAN_POINT('E2',(-2247.444555395900400,
   -554.282243115230020,2812.500000000000000));
#218=QUASI_UNIFORM_CURVE('E2',1,(#216,#217),.POLYLINE_FORM.,.F.,.U.
   );
#219=EDGE_CURVE('E2',#138,#190,#218,.T.);
#220=ORIENTED_EDGE('E2',*,*,#219,.T.);
#221=EDGE_LOOP('F3',(#209,#214,#215,#220));
#222=FACE_OUTER_BOUND('F3',#221,.T.);
#223=ADVANCED_FACE('F3',(#222),#208,.T.);
#224=CARTESIAN_POINT('F4',(-2247.444555395900400,
   -533.282243115230020,-937.500000000010000));
#225=CARTESIAN_POINT('F4',(-344.744555395920030,-533.282243115230020,
   -937.500000000010000));
#226=CARTESIAN_POINT('F4',(-2247.444555395900400,
   -554.282243115230020,-937.500000000010000));
#227=CARTESIAN_POINT('F4',(-344.744555395920030,-554.282243115230020,
   -937.500000000010000));
#228=B_SPLINE_SURFACE_WITH_KNOTS('F4',1,1,((#224,#226),(#225,#227))
,.PLANE_SURF.,.F.,.F.,.U.,(2,2),(2,2),(0.0,90.604761904762000),(
   0.0,1.0),.UNSPECIFIED.);
#229=ORIENTED_EDGE('E9',*,*,#158,.F.);
#230=CARTESIAN_POINT('E8',(-344.744555395920030,-533.282243115230020,
   -937.500000000010000));
#231=CARTESIAN_POINT('E8',(-344.744555395920030,-554.282243115230020,
   -937.500000000010000));
#232=QUASI_UNIFORM_CURVE('E8',1,(#230,#231),.POLYLINE_FORM.,.F.,.U.
   );
#233=EDGE_CURVE('E8',#147,#176,#232,.T.);
#234=ORIENTED_EDGE('E8',*,*,#233,.T.);
#235=ORIENTED_EDGE('E10',*,*,#180,.F.);
#236=CARTESIAN_POINT('E4',(-2247.444555395900400,
   -554.282243115230020,-937.500000000010000));
#237=CARTESIAN_POINT('E4',(-2247.444555395900400,
   -533.282243115230020,-937.500000000010000));
#238=QUASI_UNIFORM_CURVE('E4',1,(#236,#237),.POLYLINE_FORM.,.F.,.U.
   );
#239=EDGE_CURVE('E4',#174,#154,#238,.T.);
#240=ORIENTED_EDGE('E4',*,*,#239,.T.);
#241=EDGE_LOOP('F4',(#229,#234,#235,#240));
#242=FACE_OUTER_BOUND('F4',#241,.T.);
#243=ADVANCED_FACE('F4',(#242),#228,.T.);
#244=CARTESIAN_POINT('F5',(-344.744555395920030,-533.282243115230020,
   2812.500000000000000));
#245=CARTESIAN_POINT('F5',(-344.744555395920030,-554.282243115230020,
   2812.500000000000000));
#246=CARTESIAN_POINT('F5',(-344.744555395920030,-533.282243115230020,
   -937.500000000010000));
#247=CARTESIAN_POINT('F5',(-344.744555395920030,-554.282243115230020,
   -937.500000000010000));
#248=B_SPLINE_SURFACE_WITH_KNOTS('F5',1,1,((#244,#246),(#245,#247))
,.PLANE_SURF.,.F.,.F.,.U.,(2,2),(2,2),(0.0,1.0),(0.0,
   178.571428571430000),.UNSPECIFIED.);
#249=ORIENTED_EDGE('E6',*,*,#213,.F.);
#250=ORIENTED_EDGE('E5',*,*,#187,.F.);
#251=ORIENTED_EDGE('E8',*,*,#233,.F.);
#252=ORIENTED_EDGE('E7',*,*,#151,.F.);
#253=EDGE_LOOP('F5',(#249,#250,#251,#252));
#254=FACE_OUTER_BOUND('F5',#253,.T.);
#255=ADVANCED_FACE('F5',(#254),#248,.T.);
#256=CARTESIAN_POINT('F6',(-2247.444555395900400,
   -554.282243115230020,2812.500000000000000));
#257=CARTESIAN_POINT('F6',(-2247.444555395900400,
   -533.282243115230020,2812.500000000000000));
#258=CARTESIAN_POINT('F6',(-2247.444555395900400,
   -554.282243115230020,-937.500000000010000));
#259=CARTESIAN_POINT('F6',(-2247.444555395900400,
   -533.282243115230020,-937.500000000010000));
#260=B_SPLINE_SURFACE_WITH_KNOTS('F6',1,1,((#256,#258),(#257,#259))
,.PLANE_SURF.,.F.,.F.,.U.,(2,2),(2,2),(0.0,1.0),(0.0,
   178.571428571430000),.UNSPECIFIED.);
#261=ORIENTED_EDGE('F3',*,*,#219,.F.);
#262=ORIENTED_EDGE('F1',*,*,#163,.F.);
#263=ORIENTED_EDGE('F4',*,*,#239,.F.);
#264=ORIENTED_EDGE('F2',*,*,#199,.F.);
#265=EDGE_LOOP('F6',(#261,#262,#263,#264));
#266=FACE_OUTER_BOUND('F6',#265,.T.);
#267=ADVANCED_FACE('F6',(#266),#260,.T.);
#268=CLOSED_SHELL('R2',(#167,#203,#223,#243,#255,#267));
#269=MANIFOLD_SOLID_BREP('R2',#268);
#270=STYLED_ITEM('',(#131),#269);
#271=MECHANICAL_DESIGN_GEOMETRIC_PRESENTATION_REPRESENTATION('',(
   #270),#28);
#272=PROPERTY_DEFINITION('geometric_validation_property',
   'BABAR DETECTOR-Barrel flux return:layer1s:::1',#120);
#276=(LENGTH_UNIT()NAMED_UNIT(*)SI_UNIT(.MILLI.,.METRE.));
#277=DERIVED_UNIT_ELEMENT(#276,3.0);
#278=DERIVED_UNIT((#277));
#279=MEASURE_REPRESENTATION_ITEM('volume measure',VOLUME_MEASURE(
   149837625.0),#278);
#280=REPRESENTATION('volume',(#279),#28);
#281=PROPERTY_DEFINITION_REPRESENTATION(#272,#280);
#282=PROPERTY_DEFINITION('geometric_validation_property',
   'BABAR DETECTOR-Barrel flux return:layer1s:::1',#120);
#283=CARTESIAN_POINT('centre point',(-1296.094555395922700,
   -543.782243115234910,937.499999999989770));
#284=REPRESENTATION('centroid',(#283),#28);
#285=PROPERTY_DEFINITION_REPRESENTATION(#282,#284);
#286=PROPERTY_DEFINITION('geometric_validation_property',
   'BABAR DETECTOR-Barrel flux return:layer1s:::1',#120);
#290=(LENGTH_UNIT()NAMED_UNIT(*)SI_UNIT(.MILLI.,.METRE.));
#291=DERIVED_UNIT_ELEMENT(#290,2.0);
#292=DERIVED_UNIT((#291));
#293=MEASURE_REPRESENTATION_ITEM('surface area measure',
   AREA_MEASURE(14507663.400000000000000),#292);
#294=REPRESENTATION('surface area',(#293),#28);
#295=PROPERTY_DEFINITION_REPRESENTATION(#286,#294);
ENDSEC;
END-ISO-10303-21;
