ISO-10303-21;
HEADER;
/* Generated by software containing ST-Developer
 * from STEP Tools, Inc. (www.steptools.com) 
 */
/* OPTION: using custom schema-name function */

FILE_DESCRIPTION(
/* description */ (''),
/* implementation_level */ '2;1');

FILE_NAME(
/* name */ 'supp_att_nastro_x3.stp',
/* time_stamp */ '2013-07-12T10:16:50+02:00',
/* author */ (''),
/* organization */ (''),
/* preprocessor_version */ 'ST-DEVELOPER v14',
/* originating_system */ 'SIEMENS PLM Software NX 8.0',
/* authorisation */ '');

FILE_SCHEMA (('CONFIG_CONTROL_DESIGN'));
ENDSEC;

DATA;
#10=SHAPE_REPRESENTATION_RELATIONSHIP('None',
'relationship between supp attacco nastro test-None and supp attacco na
stro test-None',#92,#11);
#11=ADVANCED_BREP_SHAPE_REPRESENTATION('supp attacco nastro test-None',(#93),
#481);
#12=CC_DESIGN_APPROVAL(#24,(#82));
#13=CC_DESIGN_APPROVAL(#25,(#84));
#14=CC_DESIGN_APPROVAL(#26,(#31));
#15=APPROVAL_PERSON_ORGANIZATION(#69,#24,#18);
#16=APPROVAL_PERSON_ORGANIZATION(#70,#25,#19);
#17=APPROVAL_PERSON_ORGANIZATION(#71,#26,#20);
#18=APPROVAL_ROLE('approver');
#19=APPROVAL_ROLE('approver');
#20=APPROVAL_ROLE('approver');
#21=APPROVAL_DATE_TIME(#39,#24);
#22=APPROVAL_DATE_TIME(#40,#25);
#23=APPROVAL_DATE_TIME(#41,#26);
#24=APPROVAL(#27,' ');
#25=APPROVAL(#28,' ');
#26=APPROVAL(#29,' ');
#27=APPROVAL_STATUS('not_yet_approved');
#28=APPROVAL_STATUS('not_yet_approved');
#29=APPROVAL_STATUS('not_yet_approved');
#30=CC_DESIGN_SECURITY_CLASSIFICATION(#31,(#84));
#31=SECURITY_CLASSIFICATION(' ',' ',#32);
#32=SECURITY_CLASSIFICATION_LEVEL('confidential');
#33=CC_DESIGN_DATE_AND_TIME_ASSIGNMENT(#37,#35,(#82));
#34=CC_DESIGN_DATE_AND_TIME_ASSIGNMENT(#38,#36,(#31));
#35=DATE_TIME_ROLE('creation_date');
#36=DATE_TIME_ROLE('classification_date');
#37=DATE_AND_TIME(#52,#42);
#38=DATE_AND_TIME(#53,#43);
#39=DATE_AND_TIME(#54,#44);
#40=DATE_AND_TIME(#55,#45);
#41=DATE_AND_TIME(#56,#46);
#42=LOCAL_TIME(0,0,0.,#47);
#43=LOCAL_TIME(0,0,0.,#48);
#44=LOCAL_TIME(0,0,0.,#49);
#45=LOCAL_TIME(0,0,0.,#50);
#46=LOCAL_TIME(0,0,0.,#51);
#47=COORDINATED_UNIVERSAL_TIME_OFFSET(0,0,.BEHIND.);
#48=COORDINATED_UNIVERSAL_TIME_OFFSET(0,0,.BEHIND.);
#49=COORDINATED_UNIVERSAL_TIME_OFFSET(0,0,.BEHIND.);
#50=COORDINATED_UNIVERSAL_TIME_OFFSET(0,0,.BEHIND.);
#51=COORDINATED_UNIVERSAL_TIME_OFFSET(0,0,.BEHIND.);
#52=CALENDAR_DATE(0,1,1);
#53=CALENDAR_DATE(0,1,1);
#54=CALENDAR_DATE(0,1,1);
#55=CALENDAR_DATE(0,1,1);
#56=CALENDAR_DATE(0,1,1);
#57=CC_DESIGN_PERSON_AND_ORGANIZATION_ASSIGNMENT(#65,#61,(#82,#84));
#58=CC_DESIGN_PERSON_AND_ORGANIZATION_ASSIGNMENT(#66,#62,(#86));
#59=CC_DESIGN_PERSON_AND_ORGANIZATION_ASSIGNMENT(#67,#63,(#84));
#60=CC_DESIGN_PERSON_AND_ORGANIZATION_ASSIGNMENT(#68,#64,(#31));
#61=PERSON_AND_ORGANIZATION_ROLE('creator');
#62=PERSON_AND_ORGANIZATION_ROLE('design_owner');
#63=PERSON_AND_ORGANIZATION_ROLE('design_supplier');
#64=PERSON_AND_ORGANIZATION_ROLE('classification_officer');
#65=PERSON_AND_ORGANIZATION(#79,#72);
#66=PERSON_AND_ORGANIZATION(#79,#73);
#67=PERSON_AND_ORGANIZATION(#79,#74);
#68=PERSON_AND_ORGANIZATION(#79,#75);
#69=PERSON_AND_ORGANIZATION(#79,#76);
#70=PERSON_AND_ORGANIZATION(#79,#77);
#71=PERSON_AND_ORGANIZATION(#79,#78);
#72=ORGANIZATION(' ',' ',' ');
#73=ORGANIZATION(' ',' ',' ');
#74=ORGANIZATION(' ',' ',' ');
#75=ORGANIZATION(' ',' ',' ');
#76=ORGANIZATION(' ',' ',' ');
#77=ORGANIZATION(' ',' ',' ');
#78=ORGANIZATION(' ',' ',' ');
#79=PERSON(' ',' ',' ',(' '),$,$);
#80=SHAPE_DEFINITION_REPRESENTATION(#81,#92);
#81=PRODUCT_DEFINITION_SHAPE('','',#82);
#82=PRODUCT_DEFINITION(' ','',#84,#83);
#83=DESIGN_CONTEXT('',#91,'design');
#84=PRODUCT_DEFINITION_FORMATION_WITH_SPECIFIED_SOURCE(' ',' ',#86,
 .NOT_KNOWN.);
#85=PRODUCT_RELATED_PRODUCT_CATEGORY('detail','',(#86));
#86=PRODUCT('supp attacco nastro test','supp attacco nastro test',' ',(#89));
#87=PRODUCT_CATEGORY('part',' ');
#88=PRODUCT_CATEGORY(' ','');
#89=MECHANICAL_CONTEXT(' ',#91,'mechanical');
#90=APPLICATION_PROTOCOL_DEFINITION('international standard',
'config_control_design',2010,#91);
#91=APPLICATION_CONTEXT(
'configuration controlled 3D designs of mechanical parts and assemblies');
#92=SHAPE_REPRESENTATION('supp attacco nastro test-None',(#331),#481);
#93=MANIFOLD_SOLID_BREP('',#94);
#94=CLOSED_SHELL('',(#120,#121,#122,#123,#124,#125,#126,#127,#128,#129,#130,
#131,#132));
#95=CYLINDRICAL_SURFACE('',#348,5.25);
#96=CYLINDRICAL_SURFACE('',#349,3.2);
#97=CYLINDRICAL_SURFACE('',#350,3.2);
#98=FACE_BOUND('',#151,.T.);
#99=FACE_BOUND('',#152,.T.);
#100=FACE_BOUND('',#155,.T.);
#101=FACE_BOUND('',#156,.T.);
#102=FACE_BOUND('',#157,.T.);
#103=FACE_BOUND('',#159,.T.);
#104=FACE_BOUND('',#160,.T.);
#105=FACE_BOUND('',#162,.T.);
#106=FACE_BOUND('',#163,.T.);
#107=FACE_BOUND('',#164,.T.);
#108=FACE_BOUND('',#165,.T.);
#109=FACE_BOUND('',#166,.T.);
#110=FACE_BOUND('',#167,.T.);
#111=FACE_BOUND('',#168,.T.);
#112=FACE_BOUND('',#169,.T.);
#113=FACE_BOUND('',#170,.T.);
#114=CIRCLE('',#334,5.25);
#115=CIRCLE('',#338,3.2);
#116=CIRCLE('',#339,3.2);
#117=CIRCLE('',#342,5.25);
#118=CIRCLE('',#345,3.2);
#119=CIRCLE('',#346,3.2);
#120=ADVANCED_FACE('',(#143),#133,.T.);
#121=ADVANCED_FACE('',(#144),#134,.T.);
#122=ADVANCED_FACE('',(#98,#99),#135,.T.);
#123=ADVANCED_FACE('',(#145),#136,.T.);
#124=ADVANCED_FACE('',(#146),#137,.T.);
#125=ADVANCED_FACE('',(#100,#101,#102),#138,.T.);
#126=ADVANCED_FACE('',(#147),#139,.T.);
#127=ADVANCED_FACE('',(#103,#104),#140,.F.);
#128=ADVANCED_FACE('',(#148),#141,.F.);
#129=ADVANCED_FACE('',(#105,#106,#107),#142,.F.);
#130=ADVANCED_FACE('',(#108,#109),#95,.F.);
#131=ADVANCED_FACE('',(#110,#111),#96,.F.);
#132=ADVANCED_FACE('',(#112,#113),#97,.F.);
#133=PLANE('',#332);
#134=PLANE('',#333);
#135=PLANE('',#335);
#136=PLANE('',#336);
#137=PLANE('',#337);
#138=PLANE('',#340);
#139=PLANE('',#341);
#140=PLANE('',#343);
#141=PLANE('',#344);
#142=PLANE('',#347);
#143=FACE_OUTER_BOUND('',#149,.T.);
#144=FACE_OUTER_BOUND('',#150,.T.);
#145=FACE_OUTER_BOUND('',#153,.T.);
#146=FACE_OUTER_BOUND('',#154,.T.);
#147=FACE_OUTER_BOUND('',#158,.T.);
#148=FACE_OUTER_BOUND('',#161,.T.);
#149=EDGE_LOOP('',(#171,#172,#173,#174,#175,#176,#177,#178));
#150=EDGE_LOOP('',(#179,#180,#181,#182));
#151=EDGE_LOOP('',(#183));
#152=EDGE_LOOP('',(#184,#185,#186,#187));
#153=EDGE_LOOP('',(#188,#189,#190,#191));
#154=EDGE_LOOP('',(#192,#193,#194,#195));
#155=EDGE_LOOP('',(#196));
#156=EDGE_LOOP('',(#197));
#157=EDGE_LOOP('',(#198,#199,#200,#201));
#158=EDGE_LOOP('',(#202,#203,#204,#205,#206,#207,#208,#209));
#159=EDGE_LOOP('',(#210));
#160=EDGE_LOOP('',(#211,#212,#213,#214));
#161=EDGE_LOOP('',(#215,#216,#217,#218));
#162=EDGE_LOOP('',(#219));
#163=EDGE_LOOP('',(#220));
#164=EDGE_LOOP('',(#221,#222,#223,#224));
#165=EDGE_LOOP('',(#225));
#166=EDGE_LOOP('',(#226));
#167=EDGE_LOOP('',(#227));
#168=EDGE_LOOP('',(#228));
#169=EDGE_LOOP('',(#229));
#170=EDGE_LOOP('',(#230));
#171=ORIENTED_EDGE('',*,*,#253,.F.);
#172=ORIENTED_EDGE('',*,*,#254,.T.);
#173=ORIENTED_EDGE('',*,*,#255,.T.);
#174=ORIENTED_EDGE('',*,*,#256,.T.);
#175=ORIENTED_EDGE('',*,*,#257,.F.);
#176=ORIENTED_EDGE('',*,*,#258,.T.);
#177=ORIENTED_EDGE('',*,*,#259,.T.);
#178=ORIENTED_EDGE('',*,*,#260,.T.);
#179=ORIENTED_EDGE('',*,*,#257,.T.);
#180=ORIENTED_EDGE('',*,*,#261,.T.);
#181=ORIENTED_EDGE('',*,*,#262,.F.);
#182=ORIENTED_EDGE('',*,*,#263,.T.);
#183=ORIENTED_EDGE('',*,*,#264,.T.);
#184=ORIENTED_EDGE('',*,*,#265,.F.);
#185=ORIENTED_EDGE('',*,*,#266,.F.);
#186=ORIENTED_EDGE('',*,*,#267,.F.);
#187=ORIENTED_EDGE('',*,*,#260,.F.);
#188=ORIENTED_EDGE('',*,*,#268,.T.);
#189=ORIENTED_EDGE('',*,*,#265,.T.);
#190=ORIENTED_EDGE('',*,*,#259,.F.);
#191=ORIENTED_EDGE('',*,*,#269,.T.);
#192=ORIENTED_EDGE('',*,*,#270,.F.);
#193=ORIENTED_EDGE('',*,*,#253,.T.);
#194=ORIENTED_EDGE('',*,*,#267,.T.);
#195=ORIENTED_EDGE('',*,*,#271,.F.);
#196=ORIENTED_EDGE('',*,*,#272,.F.);
#197=ORIENTED_EDGE('',*,*,#273,.F.);
#198=ORIENTED_EDGE('',*,*,#274,.F.);
#199=ORIENTED_EDGE('',*,*,#269,.F.);
#200=ORIENTED_EDGE('',*,*,#258,.F.);
#201=ORIENTED_EDGE('',*,*,#263,.F.);
#202=ORIENTED_EDGE('',*,*,#275,.F.);
#203=ORIENTED_EDGE('',*,*,#271,.T.);
#204=ORIENTED_EDGE('',*,*,#266,.T.);
#205=ORIENTED_EDGE('',*,*,#268,.F.);
#206=ORIENTED_EDGE('',*,*,#274,.T.);
#207=ORIENTED_EDGE('',*,*,#262,.T.);
#208=ORIENTED_EDGE('',*,*,#276,.F.);
#209=ORIENTED_EDGE('',*,*,#277,.F.);
#210=ORIENTED_EDGE('',*,*,#278,.T.);
#211=ORIENTED_EDGE('',*,*,#270,.T.);
#212=ORIENTED_EDGE('',*,*,#275,.T.);
#213=ORIENTED_EDGE('',*,*,#279,.T.);
#214=ORIENTED_EDGE('',*,*,#254,.F.);
#215=ORIENTED_EDGE('',*,*,#279,.F.);
#216=ORIENTED_EDGE('',*,*,#277,.T.);
#217=ORIENTED_EDGE('',*,*,#280,.T.);
#218=ORIENTED_EDGE('',*,*,#255,.F.);
#219=ORIENTED_EDGE('',*,*,#281,.T.);
#220=ORIENTED_EDGE('',*,*,#282,.T.);
#221=ORIENTED_EDGE('',*,*,#280,.F.);
#222=ORIENTED_EDGE('',*,*,#276,.T.);
#223=ORIENTED_EDGE('',*,*,#261,.F.);
#224=ORIENTED_EDGE('',*,*,#256,.F.);
#225=ORIENTED_EDGE('',*,*,#264,.F.);
#226=ORIENTED_EDGE('',*,*,#278,.F.);
#227=ORIENTED_EDGE('',*,*,#273,.T.);
#228=ORIENTED_EDGE('',*,*,#282,.F.);
#229=ORIENTED_EDGE('',*,*,#272,.T.);
#230=ORIENTED_EDGE('',*,*,#281,.F.);
#231=VERTEX_POINT('',#417);
#232=VERTEX_POINT('',#418);
#233=VERTEX_POINT('',#420);
#234=VERTEX_POINT('',#422);
#235=VERTEX_POINT('',#424);
#236=VERTEX_POINT('',#426);
#237=VERTEX_POINT('',#428);
#238=VERTEX_POINT('',#430);
#239=VERTEX_POINT('',#434);
#240=VERTEX_POINT('',#436);
#241=VERTEX_POINT('',#440);
#242=VERTEX_POINT('',#442);
#243=VERTEX_POINT('',#444);
#244=VERTEX_POINT('',#448);
#245=VERTEX_POINT('',#452);
#246=VERTEX_POINT('',#456);
#247=VERTEX_POINT('',#458);
#248=VERTEX_POINT('',#462);
#249=VERTEX_POINT('',#464);
#250=VERTEX_POINT('',#468);
#251=VERTEX_POINT('',#474);
#252=VERTEX_POINT('',#476);
#253=EDGE_CURVE('',#231,#232,#283,.T.);
#254=EDGE_CURVE('',#231,#233,#284,.T.);
#255=EDGE_CURVE('',#233,#234,#285,.T.);
#256=EDGE_CURVE('',#234,#235,#286,.T.);
#257=EDGE_CURVE('',#236,#235,#287,.T.);
#258=EDGE_CURVE('',#236,#237,#288,.T.);
#259=EDGE_CURVE('',#237,#238,#289,.T.);
#260=EDGE_CURVE('',#238,#232,#290,.T.);
#261=EDGE_CURVE('',#235,#239,#291,.T.);
#262=EDGE_CURVE('',#240,#239,#292,.T.);
#263=EDGE_CURVE('',#240,#236,#293,.T.);
#264=EDGE_CURVE('',#241,#241,#114,.T.);
#265=EDGE_CURVE('',#242,#238,#294,.T.);
#266=EDGE_CURVE('',#243,#242,#295,.T.);
#267=EDGE_CURVE('',#232,#243,#296,.T.);
#268=EDGE_CURVE('',#244,#242,#297,.T.);
#269=EDGE_CURVE('',#237,#244,#298,.T.);
#270=EDGE_CURVE('',#231,#245,#299,.T.);
#271=EDGE_CURVE('',#245,#243,#300,.T.);
#272=EDGE_CURVE('',#246,#246,#115,.T.);
#273=EDGE_CURVE('',#247,#247,#116,.T.);
#274=EDGE_CURVE('',#244,#240,#301,.T.);
#275=EDGE_CURVE('',#245,#248,#302,.T.);
#276=EDGE_CURVE('',#249,#239,#303,.T.);
#277=EDGE_CURVE('',#248,#249,#304,.T.);
#278=EDGE_CURVE('',#250,#250,#117,.T.);
#279=EDGE_CURVE('',#248,#233,#305,.T.);
#280=EDGE_CURVE('',#249,#234,#306,.T.);
#281=EDGE_CURVE('',#251,#251,#118,.T.);
#282=EDGE_CURVE('',#252,#252,#119,.T.);
#283=LINE('',#416,#307);
#284=LINE('',#419,#308);
#285=LINE('',#421,#309);
#286=LINE('',#423,#310);
#287=LINE('',#425,#311);
#288=LINE('',#427,#312);
#289=LINE('',#429,#313);
#290=LINE('',#431,#314);
#291=LINE('',#433,#315);
#292=LINE('',#435,#316);
#293=LINE('',#437,#317);
#294=LINE('',#441,#318);
#295=LINE('',#443,#319);
#296=LINE('',#445,#320);
#297=LINE('',#447,#321);
#298=LINE('',#449,#322);
#299=LINE('',#451,#323);
#300=LINE('',#453,#324);
#301=LINE('',#459,#325);
#302=LINE('',#461,#326);
#303=LINE('',#463,#327);
#304=LINE('',#465,#328);
#305=LINE('',#469,#329);
#306=LINE('',#471,#330);
#307=VECTOR('',#353,1.);
#308=VECTOR('',#354,1.);
#309=VECTOR('',#355,1.);
#310=VECTOR('',#356,1.);
#311=VECTOR('',#357,1.);
#312=VECTOR('',#358,1.);
#313=VECTOR('',#359,1.);
#314=VECTOR('',#360,1.);
#315=VECTOR('',#363,1.);
#316=VECTOR('',#364,1.);
#317=VECTOR('',#365,1.);
#318=VECTOR('',#370,1.);
#319=VECTOR('',#371,1.);
#320=VECTOR('',#372,1.);
#321=VECTOR('',#375,1.);
#322=VECTOR('',#376,1.);
#323=VECTOR('',#379,1.);
#324=VECTOR('',#380,1.);
#325=VECTOR('',#387,1.);
#326=VECTOR('',#390,1.);
#327=VECTOR('',#391,1.);
#328=VECTOR('',#392,1.);
#329=VECTOR('',#397,1.);
#330=VECTOR('',#400,1.);
#331=AXIS2_PLACEMENT_3D('',#415,#351,#352);
#332=AXIS2_PLACEMENT_3D('',#432,#361,#362);
#333=AXIS2_PLACEMENT_3D('',#438,#366,#367);
#334=AXIS2_PLACEMENT_3D('',#439,#368,#369);
#335=AXIS2_PLACEMENT_3D('',#446,#373,#374);
#336=AXIS2_PLACEMENT_3D('',#450,#377,#378);
#337=AXIS2_PLACEMENT_3D('',#454,#381,#382);
#338=AXIS2_PLACEMENT_3D('',#455,#383,#384);
#339=AXIS2_PLACEMENT_3D('',#457,#385,#386);
#340=AXIS2_PLACEMENT_3D('',#460,#388,#389);
#341=AXIS2_PLACEMENT_3D('',#466,#393,#394);
#342=AXIS2_PLACEMENT_3D('',#467,#395,#396);
#343=AXIS2_PLACEMENT_3D('',#470,#398,#399);
#344=AXIS2_PLACEMENT_3D('',#472,#401,#402);
#345=AXIS2_PLACEMENT_3D('',#473,#403,#404);
#346=AXIS2_PLACEMENT_3D('',#475,#405,#406);
#347=AXIS2_PLACEMENT_3D('',#477,#407,#408);
#348=AXIS2_PLACEMENT_3D('',#478,#409,#410);
#349=AXIS2_PLACEMENT_3D('',#479,#411,#412);
#350=AXIS2_PLACEMENT_3D('',#480,#413,#414);
#351=DIRECTION('',(0.,0.,1.));
#352=DIRECTION('',(1.,0.,0.));
#353=DIRECTION('',(0.,0.,1.));
#354=DIRECTION('',(0.,-1.,0.));
#355=DIRECTION('',(0.,0.,-1.));
#356=DIRECTION('',(0.,1.,0.));
#357=DIRECTION('',(0.,0.,1.));
#358=DIRECTION('',(0.,-1.,0.));
#359=DIRECTION('',(0.,0.,1.));
#360=DIRECTION('',(0.,1.,0.));
#361=DIRECTION('',(-1.,0.,0.));
#362=DIRECTION('',(0.,0.,1.));
#363=DIRECTION('',(1.,0.,0.));
#364=DIRECTION('',(0.,0.,1.));
#365=DIRECTION('',(-1.,0.,0.));
#366=DIRECTION('',(0.,1.,0.));
#367=DIRECTION('',(0.,0.,1.));
#368=DIRECTION('',(0.,0.,-1.));
#369=DIRECTION('',(-1.,0.,0.));
#370=DIRECTION('',(-1.,0.,0.));
#371=DIRECTION('',(0.,-1.,0.));
#372=DIRECTION('',(1.,0.,0.));
#373=DIRECTION('',(0.,0.,1.));
#374=DIRECTION('',(1.,0.,0.));
#375=DIRECTION('',(0.,0.,1.));
#376=DIRECTION('',(1.,0.,0.));
#377=DIRECTION('',(0.,-1.,0.));
#378=DIRECTION('',(0.,0.,-1.));
#379=DIRECTION('',(1.,0.,0.));
#380=DIRECTION('',(0.,0.,1.));
#381=DIRECTION('',(0.,1.,0.));
#382=DIRECTION('',(0.,0.,1.));
#383=DIRECTION('',(0.,0.,-1.));
#384=DIRECTION('',(-0.999999999999998,0.,0.));
#385=DIRECTION('',(0.,0.,-1.));
#386=DIRECTION('',(-1.,0.,0.));
#387=DIRECTION('',(0.,1.,0.));
#388=DIRECTION('',(0.,0.,-1.));
#389=DIRECTION('',(-1.,0.,0.));
#390=DIRECTION('',(0.,-1.,0.));
#391=DIRECTION('',(0.,1.,0.));
#392=DIRECTION('',(0.,0.,-1.));
#393=DIRECTION('',(1.,0.,0.));
#394=DIRECTION('',(0.,0.,-1.));
#395=DIRECTION('',(0.,0.,1.));
#396=DIRECTION('',(1.,0.,0.));
#397=DIRECTION('',(-1.,0.,0.));
#398=DIRECTION('',(0.,0.,1.));
#399=DIRECTION('',(1.,0.,0.));
#400=DIRECTION('',(-1.,0.,0.));
#401=DIRECTION('',(0.,-1.,0.));
#402=DIRECTION('',(0.,0.,-1.));
#403=DIRECTION('',(0.,0.,-1.));
#404=DIRECTION('',(-0.999999999999998,0.,0.));
#405=DIRECTION('',(0.,0.,-1.));
#406=DIRECTION('',(-1.,0.,0.));
#407=DIRECTION('',(0.,0.,-1.));
#408=DIRECTION('',(-1.,0.,0.));
#409=DIRECTION('',(0.,0.,-1.));
#410=DIRECTION('',(-1.,0.,0.));
#411=DIRECTION('',(0.,0.,-1.));
#412=DIRECTION('',(-1.,0.,0.));
#413=DIRECTION('',(0.,0.,-1.));
#414=DIRECTION('',(-0.999999999999998,0.,0.));
#415=CARTESIAN_POINT('',(0.,0.,0.));
#416=CARTESIAN_POINT('',(0.,60.,0.));
#417=CARTESIAN_POINT('',(0.,60.,36.7));
#418=CARTESIAN_POINT('',(0.,60.,40.7));
#419=CARTESIAN_POINT('',(0.,60.,36.7));
#420=CARTESIAN_POINT('',(0.,4.,36.7));
#421=CARTESIAN_POINT('',(0.,4.,36.7));
#422=CARTESIAN_POINT('',(0.,4.,4.));
#423=CARTESIAN_POINT('',(0.,4.,4.));
#424=CARTESIAN_POINT('',(0.,60.,4.));
#425=CARTESIAN_POINT('',(0.,60.,0.));
#426=CARTESIAN_POINT('',(0.,60.,0.));
#427=CARTESIAN_POINT('',(0.,30.,0.));
#428=CARTESIAN_POINT('',(0.,0.,0.));
#429=CARTESIAN_POINT('',(0.,0.,0.));
#430=CARTESIAN_POINT('',(0.,0.,40.7));
#431=CARTESIAN_POINT('',(0.,30.,40.7));
#432=CARTESIAN_POINT('',(0.,30.,0.));
#433=CARTESIAN_POINT('',(-712.,60.,4.));
#434=CARTESIAN_POINT('',(80.,60.,4.));
#435=CARTESIAN_POINT('',(80.,60.,0.));
#436=CARTESIAN_POINT('',(80.,60.,0.));
#437=CARTESIAN_POINT('',(40.,60.,0.));
#438=CARTESIAN_POINT('',(40.,60.,0.));
#439=CARTESIAN_POINT('',(40.,32.,40.7));
#440=CARTESIAN_POINT('',(34.75,32.,40.7));
#441=CARTESIAN_POINT('',(40.,0.,40.7));
#442=CARTESIAN_POINT('',(80.,0.,40.7));
#443=CARTESIAN_POINT('',(80.,30.,40.7));
#444=CARTESIAN_POINT('',(80.,60.,40.7));
#445=CARTESIAN_POINT('',(40.,60.,40.7));
#446=CARTESIAN_POINT('',(40.,30.,40.7));
#447=CARTESIAN_POINT('',(80.,0.,0.));
#448=CARTESIAN_POINT('',(80.,0.,0.));
#449=CARTESIAN_POINT('',(40.,0.,0.));
#450=CARTESIAN_POINT('',(40.,0.,0.));
#451=CARTESIAN_POINT('',(-712.,60.,36.7));
#452=CARTESIAN_POINT('',(80.,60.,36.7));
#453=CARTESIAN_POINT('',(80.,60.,0.));
#454=CARTESIAN_POINT('',(40.,60.,0.));
#455=CARTESIAN_POINT('',(67.9999999999999,40.,0.));
#456=CARTESIAN_POINT('',(64.7999999999999,40.,0.));
#457=CARTESIAN_POINT('',(12.,40.,0.));
#458=CARTESIAN_POINT('',(8.8,40.,0.));
#459=CARTESIAN_POINT('',(80.,30.,0.));
#460=CARTESIAN_POINT('',(40.,30.,0.));
#461=CARTESIAN_POINT('',(80.,60.,36.7));
#462=CARTESIAN_POINT('',(80.,4.,36.7));
#463=CARTESIAN_POINT('',(80.,4.,4.));
#464=CARTESIAN_POINT('',(80.,4.,4.));
#465=CARTESIAN_POINT('',(80.,4.,36.7));
#466=CARTESIAN_POINT('',(80.,30.,0.));
#467=CARTESIAN_POINT('',(40.,32.,36.7));
#468=CARTESIAN_POINT('',(45.25,32.,36.7));
#469=CARTESIAN_POINT('',(-712.,4.,36.7));
#470=CARTESIAN_POINT('',(-712.,60.,36.7));
#471=CARTESIAN_POINT('',(-712.,4.,4.));
#472=CARTESIAN_POINT('',(-712.,4.,36.7));
#473=CARTESIAN_POINT('',(67.9999999999999,40.,3.99999999999999));
#474=CARTESIAN_POINT('',(64.7999999999999,40.,3.99999999999999));
#475=CARTESIAN_POINT('',(12.,40.,3.99999999999999));
#476=CARTESIAN_POINT('',(8.8,40.,3.99999999999999));
#477=CARTESIAN_POINT('',(-712.,4.,4.));
#478=CARTESIAN_POINT('',(40.,32.,40.7));
#479=CARTESIAN_POINT('',(12.,40.,3.99999999999999));
#480=CARTESIAN_POINT('',(67.9999999999999,40.,3.99999999999999));
#481=(
GEOMETRIC_REPRESENTATION_CONTEXT(3)
GLOBAL_UNCERTAINTY_ASSIGNED_CONTEXT((#482))
GLOBAL_UNIT_ASSIGNED_CONTEXT((#488,#484,#483))
REPRESENTATION_CONTEXT('supp_att_nastro_x3','TOP_LEVEL_ASSEMBLY_PART')
);
#482=UNCERTAINTY_MEASURE_WITH_UNIT(LENGTH_MEASURE(2.E-005),#488,
'DISTANCE_ACCURACY_VALUE','Maximum Tolerance applied to model');
#483=(
NAMED_UNIT(*)
SI_UNIT($,.STERADIAN.)
SOLID_ANGLE_UNIT()
);
#484=(
CONVERSION_BASED_UNIT('DEGREE',#486)
NAMED_UNIT(#485)
PLANE_ANGLE_UNIT()
);
#485=DIMENSIONAL_EXPONENTS(0.,0.,0.,0.,0.,0.,0.);
#486=PLANE_ANGLE_MEASURE_WITH_UNIT(PLANE_ANGLE_MEASURE(0.0174532925),#487);
#487=(
NAMED_UNIT(*)
PLANE_ANGLE_UNIT()
SI_UNIT($,.RADIAN.)
);
#488=(
LENGTH_UNIT()
NAMED_UNIT(*)
SI_UNIT(.MILLI.,.METRE.)
);
ENDSEC;
END-ISO-10303-21;
