ISO-10303-21;
HEADER;
/* Generated by software containing ST-Developer
 * from STEP Tools, Inc. (www.steptools.com) 
 */
/* OPTION: using custom schema-name function */

FILE_DESCRIPTION(
/* description */ (''),
/* implementation_level */ '2;1');

FILE_NAME(
/* name */ 'supp_att_nastro1_x3.stp',
/* time_stamp */ '2013-07-12T10:17:51+02:00',
/* author */ (''),
/* organization */ (''),
/* preprocessor_version */ 'ST-DEVELOPER v14',
/* originating_system */ 'SIEMENS PLM Software NX 8.0',
/* authorisation */ '');

FILE_SCHEMA (('CONFIG_CONTROL_DESIGN'));
ENDSEC;

DATA;
#10=SHAPE_REPRESENTATION_RELATIONSHIP('None',
'relationship between supp attacco nastro 1 test-None and supp attacco 
nastro 1 test-None',#92,#11);
#11=ADVANCED_BREP_SHAPE_REPRESENTATION('supp attacco nastro 1 test-None',
(#93),#415);
#12=CC_DESIGN_APPROVAL(#24,(#82));
#13=CC_DESIGN_APPROVAL(#25,(#84));
#14=CC_DESIGN_APPROVAL(#26,(#31));
#15=APPROVAL_PERSON_ORGANIZATION(#69,#24,#18);
#16=APPROVAL_PERSON_ORGANIZATION(#70,#25,#19);
#17=APPROVAL_PERSON_ORGANIZATION(#71,#26,#20);
#18=APPROVAL_ROLE('approver');
#19=APPROVAL_ROLE('approver');
#20=APPROVAL_ROLE('approver');
#21=APPROVAL_DATE_TIME(#39,#24);
#22=APPROVAL_DATE_TIME(#40,#25);
#23=APPROVAL_DATE_TIME(#41,#26);
#24=APPROVAL(#27,' ');
#25=APPROVAL(#28,' ');
#26=APPROVAL(#29,' ');
#27=APPROVAL_STATUS('not_yet_approved');
#28=APPROVAL_STATUS('not_yet_approved');
#29=APPROVAL_STATUS('not_yet_approved');
#30=CC_DESIGN_SECURITY_CLASSIFICATION(#31,(#84));
#31=SECURITY_CLASSIFICATION(' ',' ',#32);
#32=SECURITY_CLASSIFICATION_LEVEL('confidential');
#33=CC_DESIGN_DATE_AND_TIME_ASSIGNMENT(#37,#35,(#82));
#34=CC_DESIGN_DATE_AND_TIME_ASSIGNMENT(#38,#36,(#31));
#35=DATE_TIME_ROLE('creation_date');
#36=DATE_TIME_ROLE('classification_date');
#37=DATE_AND_TIME(#52,#42);
#38=DATE_AND_TIME(#53,#43);
#39=DATE_AND_TIME(#54,#44);
#40=DATE_AND_TIME(#55,#45);
#41=DATE_AND_TIME(#56,#46);
#42=LOCAL_TIME(0,0,0.,#47);
#43=LOCAL_TIME(0,0,0.,#48);
#44=LOCAL_TIME(0,0,0.,#49);
#45=LOCAL_TIME(0,0,0.,#50);
#46=LOCAL_TIME(0,0,0.,#51);
#47=COORDINATED_UNIVERSAL_TIME_OFFSET(0,0,.BEHIND.);
#48=COORDINATED_UNIVERSAL_TIME_OFFSET(0,0,.BEHIND.);
#49=COORDINATED_UNIVERSAL_TIME_OFFSET(0,0,.BEHIND.);
#50=COORDINATED_UNIVERSAL_TIME_OFFSET(0,0,.BEHIND.);
#51=COORDINATED_UNIVERSAL_TIME_OFFSET(0,0,.BEHIND.);
#52=CALENDAR_DATE(0,1,1);
#53=CALENDAR_DATE(0,1,1);
#54=CALENDAR_DATE(0,1,1);
#55=CALENDAR_DATE(0,1,1);
#56=CALENDAR_DATE(0,1,1);
#57=CC_DESIGN_PERSON_AND_ORGANIZATION_ASSIGNMENT(#65,#61,(#82,#84));
#58=CC_DESIGN_PERSON_AND_ORGANIZATION_ASSIGNMENT(#66,#62,(#86));
#59=CC_DESIGN_PERSON_AND_ORGANIZATION_ASSIGNMENT(#67,#63,(#84));
#60=CC_DESIGN_PERSON_AND_ORGANIZATION_ASSIGNMENT(#68,#64,(#31));
#61=PERSON_AND_ORGANIZATION_ROLE('creator');
#62=PERSON_AND_ORGANIZATION_ROLE('design_owner');
#63=PERSON_AND_ORGANIZATION_ROLE('design_supplier');
#64=PERSON_AND_ORGANIZATION_ROLE('classification_officer');
#65=PERSON_AND_ORGANIZATION(#79,#72);
#66=PERSON_AND_ORGANIZATION(#79,#73);
#67=PERSON_AND_ORGANIZATION(#79,#74);
#68=PERSON_AND_ORGANIZATION(#79,#75);
#69=PERSON_AND_ORGANIZATION(#79,#76);
#70=PERSON_AND_ORGANIZATION(#79,#77);
#71=PERSON_AND_ORGANIZATION(#79,#78);
#72=ORGANIZATION(' ',' ',' ');
#73=ORGANIZATION(' ',' ',' ');
#74=ORGANIZATION(' ',' ',' ');
#75=ORGANIZATION(' ',' ',' ');
#76=ORGANIZATION(' ',' ',' ');
#77=ORGANIZATION(' ',' ',' ');
#78=ORGANIZATION(' ',' ',' ');
#79=PERSON(' ',' ',' ',(' '),$,$);
#80=SHAPE_DEFINITION_REPRESENTATION(#81,#92);
#81=PRODUCT_DEFINITION_SHAPE('','',#82);
#82=PRODUCT_DEFINITION(' ','',#84,#83);
#83=DESIGN_CONTEXT('',#91,'design');
#84=PRODUCT_DEFINITION_FORMATION_WITH_SPECIFIED_SOURCE(' ',' ',#86,
 .NOT_KNOWN.);
#85=PRODUCT_RELATED_PRODUCT_CATEGORY('detail','',(#86));
#86=PRODUCT('supp attacco nastro 1 test','supp attacco nastro 1 test',
' ',(#89));
#87=PRODUCT_CATEGORY('part',' ');
#88=PRODUCT_CATEGORY(' ','');
#89=MECHANICAL_CONTEXT(' ',#91,'mechanical');
#90=APPLICATION_PROTOCOL_DEFINITION('international standard',
'config_control_design',2010,#91);
#91=APPLICATION_CONTEXT(
'configuration controlled 3D designs of mechanical parts and assemblies');
#92=SHAPE_REPRESENTATION('supp attacco nastro 1 test-None',(#289),#415);
#93=MANIFOLD_SOLID_BREP('',#94);
#94=CLOSED_SHELL('',(#120,#121,#122,#123,#124,#125,#126,#127,#128,#129,#130));
#95=CYLINDRICAL_SURFACE('',#304,5.25);
#96=CYLINDRICAL_SURFACE('',#305,3.2);
#97=CYLINDRICAL_SURFACE('',#306,3.2);
#98=FACE_BOUND('',#146,.T.);
#99=FACE_BOUND('',#147,.T.);
#100=FACE_BOUND('',#148,.T.);
#101=FACE_BOUND('',#149,.T.);
#102=FACE_BOUND('',#150,.T.);
#103=FACE_BOUND('',#152,.T.);
#104=FACE_BOUND('',#153,.T.);
#105=FACE_BOUND('',#154,.T.);
#106=FACE_BOUND('',#155,.T.);
#107=FACE_BOUND('',#156,.T.);
#108=FACE_BOUND('',#157,.T.);
#109=FACE_BOUND('',#158,.T.);
#110=FACE_BOUND('',#159,.T.);
#111=FACE_BOUND('',#160,.T.);
#112=FACE_BOUND('',#161,.T.);
#113=FACE_BOUND('',#162,.T.);
#114=CIRCLE('',#293,5.25);
#115=CIRCLE('',#295,3.2);
#116=CIRCLE('',#296,3.2);
#117=CIRCLE('',#299,5.25);
#118=CIRCLE('',#301,3.2);
#119=CIRCLE('',#302,3.2);
#120=ADVANCED_FACE('',(#139),#131,.T.);
#121=ADVANCED_FACE('',(#140),#132,.T.);
#122=ADVANCED_FACE('',(#141),#133,.T.);
#123=ADVANCED_FACE('',(#98,#99),#134,.T.);
#124=ADVANCED_FACE('',(#100,#101,#102),#135,.T.);
#125=ADVANCED_FACE('',(#142),#136,.T.);
#126=ADVANCED_FACE('',(#103,#104),#137,.F.);
#127=ADVANCED_FACE('',(#105,#106,#107),#138,.F.);
#128=ADVANCED_FACE('',(#108,#109),#95,.F.);
#129=ADVANCED_FACE('',(#110,#111),#96,.F.);
#130=ADVANCED_FACE('',(#112,#113),#97,.F.);
#131=PLANE('',#290);
#132=PLANE('',#291);
#133=PLANE('',#292);
#134=PLANE('',#294);
#135=PLANE('',#297);
#136=PLANE('',#298);
#137=PLANE('',#300);
#138=PLANE('',#303);
#139=FACE_OUTER_BOUND('',#143,.T.);
#140=FACE_OUTER_BOUND('',#144,.T.);
#141=FACE_OUTER_BOUND('',#145,.T.);
#142=FACE_OUTER_BOUND('',#151,.T.);
#143=EDGE_LOOP('',(#163,#164,#165,#166));
#144=EDGE_LOOP('',(#167,#168,#169,#170,#171,#172));
#145=EDGE_LOOP('',(#173,#174,#175,#176,#177,#178));
#146=EDGE_LOOP('',(#179));
#147=EDGE_LOOP('',(#180,#181,#182,#183));
#148=EDGE_LOOP('',(#184));
#149=EDGE_LOOP('',(#185));
#150=EDGE_LOOP('',(#186,#187,#188,#189));
#151=EDGE_LOOP('',(#190,#191,#192,#193));
#152=EDGE_LOOP('',(#194));
#153=EDGE_LOOP('',(#195,#196,#197,#198));
#154=EDGE_LOOP('',(#199));
#155=EDGE_LOOP('',(#200));
#156=EDGE_LOOP('',(#201,#202,#203,#204));
#157=EDGE_LOOP('',(#205));
#158=EDGE_LOOP('',(#206));
#159=EDGE_LOOP('',(#207));
#160=EDGE_LOOP('',(#208));
#161=EDGE_LOOP('',(#209));
#162=EDGE_LOOP('',(#210));
#163=ORIENTED_EDGE('',*,*,#229,.F.);
#164=ORIENTED_EDGE('',*,*,#230,.T.);
#165=ORIENTED_EDGE('',*,*,#231,.F.);
#166=ORIENTED_EDGE('',*,*,#232,.F.);
#167=ORIENTED_EDGE('',*,*,#231,.T.);
#168=ORIENTED_EDGE('',*,*,#233,.F.);
#169=ORIENTED_EDGE('',*,*,#234,.F.);
#170=ORIENTED_EDGE('',*,*,#235,.T.);
#171=ORIENTED_EDGE('',*,*,#236,.T.);
#172=ORIENTED_EDGE('',*,*,#237,.F.);
#173=ORIENTED_EDGE('',*,*,#238,.T.);
#174=ORIENTED_EDGE('',*,*,#229,.T.);
#175=ORIENTED_EDGE('',*,*,#239,.T.);
#176=ORIENTED_EDGE('',*,*,#240,.T.);
#177=ORIENTED_EDGE('',*,*,#241,.F.);
#178=ORIENTED_EDGE('',*,*,#242,.T.);
#179=ORIENTED_EDGE('',*,*,#243,.T.);
#180=ORIENTED_EDGE('',*,*,#244,.F.);
#181=ORIENTED_EDGE('',*,*,#236,.F.);
#182=ORIENTED_EDGE('',*,*,#245,.F.);
#183=ORIENTED_EDGE('',*,*,#240,.F.);
#184=ORIENTED_EDGE('',*,*,#246,.F.);
#185=ORIENTED_EDGE('',*,*,#247,.F.);
#186=ORIENTED_EDGE('',*,*,#237,.T.);
#187=ORIENTED_EDGE('',*,*,#244,.T.);
#188=ORIENTED_EDGE('',*,*,#239,.F.);
#189=ORIENTED_EDGE('',*,*,#232,.T.);
#190=ORIENTED_EDGE('',*,*,#248,.F.);
#191=ORIENTED_EDGE('',*,*,#241,.T.);
#192=ORIENTED_EDGE('',*,*,#245,.T.);
#193=ORIENTED_EDGE('',*,*,#235,.F.);
#194=ORIENTED_EDGE('',*,*,#249,.T.);
#195=ORIENTED_EDGE('',*,*,#248,.T.);
#196=ORIENTED_EDGE('',*,*,#234,.T.);
#197=ORIENTED_EDGE('',*,*,#250,.T.);
#198=ORIENTED_EDGE('',*,*,#242,.F.);
#199=ORIENTED_EDGE('',*,*,#251,.T.);
#200=ORIENTED_EDGE('',*,*,#252,.T.);
#201=ORIENTED_EDGE('',*,*,#250,.F.);
#202=ORIENTED_EDGE('',*,*,#233,.T.);
#203=ORIENTED_EDGE('',*,*,#230,.F.);
#204=ORIENTED_EDGE('',*,*,#238,.F.);
#205=ORIENTED_EDGE('',*,*,#243,.F.);
#206=ORIENTED_EDGE('',*,*,#249,.F.);
#207=ORIENTED_EDGE('',*,*,#247,.T.);
#208=ORIENTED_EDGE('',*,*,#252,.F.);
#209=ORIENTED_EDGE('',*,*,#246,.T.);
#210=ORIENTED_EDGE('',*,*,#251,.F.);
#211=VERTEX_POINT('',#363);
#212=VERTEX_POINT('',#364);
#213=VERTEX_POINT('',#366);
#214=VERTEX_POINT('',#368);
#215=VERTEX_POINT('',#372);
#216=VERTEX_POINT('',#374);
#217=VERTEX_POINT('',#376);
#218=VERTEX_POINT('',#378);
#219=VERTEX_POINT('',#382);
#220=VERTEX_POINT('',#384);
#221=VERTEX_POINT('',#386);
#222=VERTEX_POINT('',#388);
#223=VERTEX_POINT('',#392);
#224=VERTEX_POINT('',#397);
#225=VERTEX_POINT('',#399);
#226=VERTEX_POINT('',#404);
#227=VERTEX_POINT('',#408);
#228=VERTEX_POINT('',#410);
#229=EDGE_CURVE('',#211,#212,#253,.T.);
#230=EDGE_CURVE('',#211,#213,#254,.T.);
#231=EDGE_CURVE('',#214,#213,#255,.T.);
#232=EDGE_CURVE('',#212,#214,#256,.T.);
#233=EDGE_CURVE('',#215,#213,#257,.T.);
#234=EDGE_CURVE('',#216,#215,#258,.T.);
#235=EDGE_CURVE('',#216,#217,#259,.T.);
#236=EDGE_CURVE('',#217,#218,#260,.T.);
#237=EDGE_CURVE('',#214,#218,#261,.T.);
#238=EDGE_CURVE('',#219,#211,#262,.T.);
#239=EDGE_CURVE('',#212,#220,#263,.T.);
#240=EDGE_CURVE('',#220,#221,#264,.T.);
#241=EDGE_CURVE('',#222,#221,#265,.T.);
#242=EDGE_CURVE('',#222,#219,#266,.T.);
#243=EDGE_CURVE('',#223,#223,#114,.T.);
#244=EDGE_CURVE('',#218,#220,#267,.T.);
#245=EDGE_CURVE('',#221,#217,#268,.T.);
#246=EDGE_CURVE('',#224,#224,#115,.T.);
#247=EDGE_CURVE('',#225,#225,#116,.T.);
#248=EDGE_CURVE('',#222,#216,#269,.T.);
#249=EDGE_CURVE('',#226,#226,#117,.T.);
#250=EDGE_CURVE('',#215,#219,#270,.T.);
#251=EDGE_CURVE('',#227,#227,#118,.T.);
#252=EDGE_CURVE('',#228,#228,#119,.T.);
#253=LINE('',#362,#271);
#254=LINE('',#365,#272);
#255=LINE('',#367,#273);
#256=LINE('',#369,#274);
#257=LINE('',#371,#275);
#258=LINE('',#373,#276);
#259=LINE('',#375,#277);
#260=LINE('',#377,#278);
#261=LINE('',#379,#279);
#262=LINE('',#381,#280);
#263=LINE('',#383,#281);
#264=LINE('',#385,#282);
#265=LINE('',#387,#283);
#266=LINE('',#389,#284);
#267=LINE('',#393,#285);
#268=LINE('',#394,#286);
#269=LINE('',#401,#287);
#270=LINE('',#405,#288);
#271=VECTOR('',#309,1.);
#272=VECTOR('',#310,1.);
#273=VECTOR('',#311,1.);
#274=VECTOR('',#312,1.);
#275=VECTOR('',#315,1.);
#276=VECTOR('',#316,1.);
#277=VECTOR('',#317,1.);
#278=VECTOR('',#318,1.);
#279=VECTOR('',#319,1.);
#280=VECTOR('',#322,1.);
#281=VECTOR('',#323,1.);
#282=VECTOR('',#324,1.);
#283=VECTOR('',#325,1.);
#284=VECTOR('',#326,1.);
#285=VECTOR('',#331,1.);
#286=VECTOR('',#332,1.);
#287=VECTOR('',#341,1.);
#288=VECTOR('',#346,1.);
#289=AXIS2_PLACEMENT_3D('',#361,#307,#308);
#290=AXIS2_PLACEMENT_3D('',#370,#313,#314);
#291=AXIS2_PLACEMENT_3D('',#380,#320,#321);
#292=AXIS2_PLACEMENT_3D('',#390,#327,#328);
#293=AXIS2_PLACEMENT_3D('',#391,#329,#330);
#294=AXIS2_PLACEMENT_3D('',#395,#333,#334);
#295=AXIS2_PLACEMENT_3D('',#396,#335,#336);
#296=AXIS2_PLACEMENT_3D('',#398,#337,#338);
#297=AXIS2_PLACEMENT_3D('',#400,#339,#340);
#298=AXIS2_PLACEMENT_3D('',#402,#342,#343);
#299=AXIS2_PLACEMENT_3D('',#403,#344,#345);
#300=AXIS2_PLACEMENT_3D('',#406,#347,#348);
#301=AXIS2_PLACEMENT_3D('',#407,#349,#350);
#302=AXIS2_PLACEMENT_3D('',#409,#351,#352);
#303=AXIS2_PLACEMENT_3D('',#411,#353,#354);
#304=AXIS2_PLACEMENT_3D('',#412,#355,#356);
#305=AXIS2_PLACEMENT_3D('',#413,#357,#358);
#306=AXIS2_PLACEMENT_3D('',#414,#359,#360);
#307=DIRECTION('',(0.,0.,1.));
#308=DIRECTION('',(1.,0.,0.));
#309=DIRECTION('',(0.,-1.,0.));
#310=DIRECTION('',(1.,0.,0.));
#311=DIRECTION('',(0.,1.,0.));
#312=DIRECTION('',(1.,0.,0.));
#313=DIRECTION('',(0.,0.,-1.));
#314=DIRECTION('',(-1.,0.,0.));
#315=DIRECTION('',(0.,0.,-1.));
#316=DIRECTION('',(0.,-1.,0.));
#317=DIRECTION('',(0.,0.,1.));
#318=DIRECTION('',(0.,-1.,0.));
#319=DIRECTION('',(0.,0.,1.));
#320=DIRECTION('',(1.,0.,0.));
#321=DIRECTION('',(0.,0.,-1.));
#322=DIRECTION('',(0.,0.,-1.));
#323=DIRECTION('',(0.,0.,1.));
#324=DIRECTION('',(0.,1.,0.));
#325=DIRECTION('',(0.,0.,1.));
#326=DIRECTION('',(0.,-1.,0.));
#327=DIRECTION('',(-1.,0.,0.));
#328=DIRECTION('',(0.,0.,1.));
#329=DIRECTION('',(0.,0.,-1.));
#330=DIRECTION('',(-1.,0.,0.));
#331=DIRECTION('',(-1.,0.,0.));
#332=DIRECTION('',(1.,0.,0.));
#333=DIRECTION('',(0.,0.,1.));
#334=DIRECTION('',(1.,0.,0.));
#335=DIRECTION('',(0.,-1.,0.));
#336=DIRECTION('',(0.,0.,-1.));
#337=DIRECTION('',(0.,-1.,0.));
#338=DIRECTION('',(0.,0.,-1.));
#339=DIRECTION('',(0.,-1.,0.));
#340=DIRECTION('',(0.,0.,-1.));
#341=DIRECTION('',(1.,0.,0.));
#342=DIRECTION('',(0.,1.,0.));
#343=DIRECTION('',(0.,0.,1.));
#344=DIRECTION('',(0.,0.,1.));
#345=DIRECTION('',(1.,0.,0.));
#346=DIRECTION('',(-1.,0.,0.));
#347=DIRECTION('',(0.,0.,1.));
#348=DIRECTION('',(1.,0.,0.));
#349=DIRECTION('',(0.,-1.,0.));
#350=DIRECTION('',(0.,0.,-1.));
#351=DIRECTION('',(0.,-1.,0.));
#352=DIRECTION('',(0.,0.,-1.));
#353=DIRECTION('',(0.,-1.,0.));
#354=DIRECTION('',(0.,0.,-1.));
#355=DIRECTION('',(0.,0.,-1.));
#356=DIRECTION('',(-1.,0.,0.));
#357=DIRECTION('',(0.,-1.,0.));
#358=DIRECTION('',(0.,0.,-1.));
#359=DIRECTION('',(0.,-1.,0.));
#360=DIRECTION('',(0.,0.,-1.));
#361=CARTESIAN_POINT('',(0.,0.,0.));
#362=CARTESIAN_POINT('',(0.,30.,0.));
#363=CARTESIAN_POINT('',(0.,4.00000000000002,0.));
#364=CARTESIAN_POINT('',(0.,0.,0.));
#365=CARTESIAN_POINT('',(-712.000495,4.00000000000002,0.));
#366=CARTESIAN_POINT('',(79.9999999999999,4.00000000000002,0.));
#367=CARTESIAN_POINT('',(80.,30.,0.));
#368=CARTESIAN_POINT('',(80.,0.,0.));
#369=CARTESIAN_POINT('',(40.,0.,0.));
#370=CARTESIAN_POINT('',(40.,30.,0.));
#371=CARTESIAN_POINT('',(80.,4.,76.7));
#372=CARTESIAN_POINT('',(80.,4.,76.7));
#373=CARTESIAN_POINT('',(80.,60.,76.7));
#374=CARTESIAN_POINT('',(80.,60.,76.7));
#375=CARTESIAN_POINT('',(80.,60.,0.));
#376=CARTESIAN_POINT('',(80.,60.,80.7));
#377=CARTESIAN_POINT('',(80.,30.,80.7));
#378=CARTESIAN_POINT('',(80.,0.,80.7));
#379=CARTESIAN_POINT('',(80.,0.,0.));
#380=CARTESIAN_POINT('',(80.,30.,0.));
#381=CARTESIAN_POINT('',(0.,4.,76.7));
#382=CARTESIAN_POINT('',(0.,4.,76.7));
#383=CARTESIAN_POINT('',(0.,0.,0.));
#384=CARTESIAN_POINT('',(0.,0.,80.7));
#385=CARTESIAN_POINT('',(0.,30.,80.7));
#386=CARTESIAN_POINT('',(0.,60.,80.7));
#387=CARTESIAN_POINT('',(0.,60.,0.));
#388=CARTESIAN_POINT('',(0.,60.,76.7));
#389=CARTESIAN_POINT('',(0.,60.,76.7));
#390=CARTESIAN_POINT('',(0.,30.,0.));
#391=CARTESIAN_POINT('',(40.,32.,80.7));
#392=CARTESIAN_POINT('',(34.75,32.,80.7));
#393=CARTESIAN_POINT('',(40.,0.,80.7));
#394=CARTESIAN_POINT('',(40.,60.,80.7));
#395=CARTESIAN_POINT('',(40.,30.,80.7));
#396=CARTESIAN_POINT('',(12.,0.,20.));
#397=CARTESIAN_POINT('',(12.,0.,16.8));
#398=CARTESIAN_POINT('',(67.9999999999999,0.,20.));
#399=CARTESIAN_POINT('',(67.9999999999999,0.,16.8));
#400=CARTESIAN_POINT('',(40.,0.,0.));
#401=CARTESIAN_POINT('',(-712.,60.,76.7));
#402=CARTESIAN_POINT('',(40.,60.,0.));
#403=CARTESIAN_POINT('',(40.,32.,76.7));
#404=CARTESIAN_POINT('',(45.25,32.,76.7));
#405=CARTESIAN_POINT('',(-712.,4.,76.7));
#406=CARTESIAN_POINT('',(-712.,60.,76.7));
#407=CARTESIAN_POINT('',(12.,3.99999999999886,20.));
#408=CARTESIAN_POINT('',(12.,3.99999999999886,16.8));
#409=CARTESIAN_POINT('',(67.9999999999999,3.99999999999955,20.));
#410=CARTESIAN_POINT('',(67.9999999999999,3.99999999999955,16.8));
#411=CARTESIAN_POINT('',(-712.,4.,76.7));
#412=CARTESIAN_POINT('',(40.,32.,80.7));
#413=CARTESIAN_POINT('',(67.9999999999999,3.99999999999955,20.));
#414=CARTESIAN_POINT('',(12.,3.99999999999886,20.));
#415=(
GEOMETRIC_REPRESENTATION_CONTEXT(3)
GLOBAL_UNCERTAINTY_ASSIGNED_CONTEXT((#416))
GLOBAL_UNIT_ASSIGNED_CONTEXT((#422,#418,#417))
REPRESENTATION_CONTEXT('supp_att_nastro1_x3','TOP_LEVEL_ASSEMBLY_PART')
);
#416=UNCERTAINTY_MEASURE_WITH_UNIT(LENGTH_MEASURE(2.E-005),#422,
'DISTANCE_ACCURACY_VALUE','Maximum Tolerance applied to model');
#417=(
NAMED_UNIT(*)
SI_UNIT($,.STERADIAN.)
SOLID_ANGLE_UNIT()
);
#418=(
CONVERSION_BASED_UNIT('DEGREE',#420)
NAMED_UNIT(#419)
PLANE_ANGLE_UNIT()
);
#419=DIMENSIONAL_EXPONENTS(0.,0.,0.,0.,0.,0.,0.);
#420=PLANE_ANGLE_MEASURE_WITH_UNIT(PLANE_ANGLE_MEASURE(0.0174532925),#421);
#421=(
NAMED_UNIT(*)
PLANE_ANGLE_UNIT()
SI_UNIT($,.RADIAN.)
);
#422=(
LENGTH_UNIT()
NAMED_UNIT(*)
SI_UNIT(.MILLI.,.METRE.)
);
ENDSEC;
END-ISO-10303-21;
